  0
SECTION
  2
HEADER
  9
$ACADVER
  1
AC1015
  9
$ACADMAINTVER
 70
     6
  9
$DWGCODEPAGE
  3
ANSI_1252
  9
$INSBASE
 10
0.0
 20
0.0
 30
0.0
  9
$EXTMIN
 10
0.0
 20
0.0
 30
0.0
  9
$EXTMAX
 10
17.0
 20
11.0
 30
0.0
  9
$LIMMIN
 10
0.0
 20
0.0
  9
$LIMMAX
 10
17.0
 20
11.0
  9
$ORTHOMODE
 70
     0
  9
$REGENMODE
 70
     1
  9
$FILLMODE
 70
     1
  9
$QTEXTMODE
 70
     0
  9
$MIRRTEXT
 70
     1
  9
$LTSCALE
 40
1.0
  9
$ATTMODE
 70
     1
  9
$TEXTSIZE
 40
0.125
  9
$TRACEWID
 40
0.05
  9
$TEXTSTYLE
  7
Standard
  9
$CLAYER
  8
0
  9
$CELTYPE
  6
ByLayer
  9
$CECOLOR
 62
   256
  9
$CELTSCALE
 40
1.0
  9
$DISPSILH
 70
     0
  9
$DIMSCALE
 40
1.0
  9
$DIMASZ
 40
0.13
  9
$DIMEXO
 40
0.05
  9
$DIMDLI
 40
0.38
  9
$DIMRND
 40
0.0
  9
$DIMDLE
 40
0.0
  9
$DIMEXE
 40
0.125
  9
$DIMTP
 40
0.0
  9
$DIMTM
 40
0.0
  9
$DIMTXT
 40
0.125
  9
$DIMCEN
 40
0.09
  9
$DIMTSZ
 40
0.0
  9
$DIMTOL
 70
     0
  9
$DIMLIM
 70
     0
  9
$DIMTIH
 70
     1
  9
$DIMTOH
 70
     1
  9
$DIMSE1
 70
     0
  9
$DIMSE2
 70
     0
  9
$DIMTAD
 70
     0
  9
$DIMZIN
 70
     0
  9
$DIMBLK
  1

  9
$DIMASO
 70
     1
  9
$DIMSHO
 70
     1
  9
$DIMPOST
  1

  9
$DIMAPOST
  1

  9
$DIMALT
 70
     0
  9
$DIMALTD
 70
     2
  9
$DIMALTF
 40
25.4
  9
$DIMLFAC
 40
0.3333333333
  9
$DIMTOFL
 70
     0
  9
$DIMTVP
 40
0.0
  9
$DIMTIX
 70
     0
  9
$DIMSOXD
 70
     0
  9
$DIMSAH
 70
     0
  9
$DIMBLK1
  1

  9
$DIMBLK2
  1

  9
$DIMSTYLE
  2
Standard
  9
$DIMCLRD
 70
     0
  9
$DIMCLRE
 70
     0
  9
$DIMCLRT
 70
     0
  9
$DIMTFAC
 40
1.0
  9
$DIMGAP
 40
0.125
  9
$DIMJUST
 70
     0
  9
$DIMSD1
 70
     0
  9
$DIMSD2
 70
     0
  9
$DIMTOLJ
 70
     1
  9
$DIMTZIN
 70
     0
  9
$DIMALTZ
 70
     0
  9
$DIMALTTZ
 70
     0
  9
$DIMUPT
 70
     0
  9
$DIMDEC
 70
     2
  9
$DIMTDEC
 70
     2
  9
$DIMALTU
 70
     2
  9
$DIMALTTD
 70
     2
  9
$DIMTXSTY
  7
Standard
  9
$DIMAUNIT
 70
     0
  9
$DIMADEC
 70
     0
  9
$DIMALTRND
 40
0.0
  9
$DIMAZIN
 70
     0
  9
$DIMDSEP
 70
    46
  9
$DIMATFIT
 70
     3
  9
$DIMFRAC
 70
     0
  9
$DIMLDRBLK
  1

  9
$DIMLUNIT
 70
     2
  9
$DIMLWD
 70
    -2
  9
$DIMLWE
 70
    -2
  9
$DIMTMOVE
 70
     0
  9
$LUNITS
 70
     2
  9
$LUPREC
 70
     3
  9
$SKETCHINC
 40
0.1
  9
$FILLETRAD
 40
0.5
  9
$AUNITS
 70
     0
  9
$AUPREC
 70
     2
  9
$MENU
  1
.
  9
$ELEVATION
 40
0.0
  9
$PELEVATION
 40
0.0
  9
$THICKNESS
 40
0.0
  9
$LIMCHECK
 70
     0
  9
$CHAMFERA
 40
0.0
  9
$CHAMFERB
 40
0.0
  9
$CHAMFERC
 40
0.0
  9
$CHAMFERD
 40
0.0
  9
$SKPOLY
 70
     0
  9
$TDCREATE
 40
2459279.425282662
  9
$TDUCREATE
 40
2459279.633615995
  9
$TDUPDATE
 40
2459279.425285428
  9
$TDUUPDATE
 40
2459279.633618762
  9
$TDINDWG
 40
0.0000000116
  9
$TDUSRTIMER
 40
0.0000000116
  9
$USRTIMER
 70
     1
  9
$ANGBASE
 50
0.0
  9
$ANGDIR
 70
     0
  9
$PDMODE
 70
     0
  9
$PDSIZE
 40
-1.0
  9
$PLINEWID
 40
0.0
  9
$SPLFRAME
 70
     0
  9
$SPLINETYPE
 70
     6
  9
$SPLINESEGS
 70
     8
  9
$HANDSEED
  5
285
  9
$SURFTAB1
 70
     6
  9
$SURFTAB2
 70
     6
  9
$SURFTYPE
 70
     6
  9
$SURFU
 70
     6
  9
$SURFV
 70
     6
  9
$UCSBASE
  2

  9
$UCSNAME
  2

  9
$UCSORG
 10
0.0
 20
0.0
 30
0.0
  9
$UCSXDIR
 10
1.0
 20
0.0
 30
0.0
  9
$UCSYDIR
 10
0.0
 20
1.0
 30
0.0
  9
$UCSORTHOREF
  2

  9
$UCSORTHOVIEW
 70
     0
  9
$UCSORGTOP
 10
0.0
 20
0.0
 30
0.0
  9
$UCSORGBOTTOM
 10
0.0
 20
0.0
 30
0.0
  9
$UCSORGLEFT
 10
0.0
 20
0.0
 30
0.0
  9
$UCSORGRIGHT
 10
0.0
 20
0.0
 30
0.0
  9
$UCSORGFRONT
 10
0.0
 20
0.0
 30
0.0
  9
$UCSORGBACK
 10
0.0
 20
0.0
 30
0.0
  9
$PUCSBASE
  2

  9
$PUCSNAME
  2

  9
$PUCSORG
 10
0.0
 20
0.0
 30
0.0
  9
$PUCSXDIR
 10
1.0
 20
0.0
 30
0.0
  9
$PUCSYDIR
 10
0.0
 20
1.0
 30
0.0
  9
$PUCSORTHOREF
  2

  9
$PUCSORTHOVIEW
 70
     0
  9
$PUCSORGTOP
 10
0.0
 20
0.0
 30
0.0
  9
$PUCSORGBOTTOM
 10
0.0
 20
0.0
 30
0.0
  9
$PUCSORGLEFT
 10
0.0
 20
0.0
 30
0.0
  9
$PUCSORGRIGHT
 10
0.0
 20
0.0
 30
0.0
  9
$PUCSORGFRONT
 10
0.0
 20
0.0
 30
0.0
  9
$PUCSORGBACK
 10
0.0
 20
0.0
 30
0.0
  9
$USERI1
 70
     0
  9
$USERI2
 70
     0
  9
$USERI3
 70
     0
  9
$USERI4
 70
     0
  9
$USERI5
 70
     0
  9
$USERR1
 40
0.0
  9
$USERR2
 40
0.0
  9
$USERR3
 40
0.0
  9
$USERR4
 40
0.0
  9
$USERR5
 40
0.0
  9
$WORLDVIEW
 70
     1
  9
$SHADEDGE
 70
     3
  9
$SHADEDIF
 70
    70
  9
$TILEMODE
 70
     1
  9
$MAXACTVP
 70
    64
  9
$PINSBASE
 10
0.0
 20
0.0
 30
0.0
  9
$PLIMCHECK
 70
     0
  9
$PEXTMIN
 10
1.0000000000E+20
 20
1.0000000000E+20
 30
1.0000000000E+20
  9
$PEXTMAX
 10
-1.0000000000E+20
 20
-1.0000000000E+20
 30
-1.0000000000E+20
  9
$PLIMMIN
 10
0.0
 20
0.0
  9
$PLIMMAX
 10
12.0
 20
9.0
  9
$UNITMODE
 70
     0
  9
$VISRETAIN
 70
     1
  9
$PLINEGEN
 70
     0
  9
$PSLTSCALE
 70
     1
  9
$TREEDEPTH
 70
  3020
  9
$CMLSTYLE
  2
Standard
  9
$CMLJUST
 70
     0
  9
$CMLSCALE
 40
1.0
  9
$PROXYGRAPHICS
 70
     1
  9
$MEASUREMENT
 70
     0
  9
$CELWEIGHT
370
    -1
  9
$ENDCAPS
280
     0
  9
$JOINSTYLE
280
     0
  9
$LWDISPLAY
290
     1
  9
$INSUNITS
 70
     1
  9
$HYPERLINKBASE
  1

  9
$STYLESHEET
  1

  9
$XEDIT
290
     1
  9
$CEPSNTYPE
380
     0
  9
$PSTYLEMODE
290
     1
  9
$FINGERPRINTGUID
  2
{12C55A01-2F8C-442F-860B-E496C220F88C}
  9
$VERSIONGUID
  2
{FAEB1C32-E019-11D5-929B-00C0DF256EC4}
  9
$EXTNAMES
290
     1
  9
$PSVPSCALE
 40
0.0
  9
$OLESTARTUP
290
     0
  0
ENDSEC
  0
SECTION
  2
CLASSES
  0
CLASS
  1
ACDBDICTIONARYWDFLT
  2
AcDbDictionaryWithDefault
  3
ObjectDBX Classes
 90
        0
280
     0
281
     0
  0
CLASS
  1
VISUALSTYLE
  2
AcDbVisualStyle
  3
ObjectDBX Classes
 90
     4095
280
     0
281
     0
  0
CLASS
  1
MATERIAL
  2
AcDbMaterial
  3
ObjectDBX Classes
 90
     1153
280
     0
281
     0
  0
CLASS
  1
SCALE
  2
AcDbScale
  3
ObjectDBX Classes
 90
     1153
280
     0
281
     0
  0
CLASS
  1
TABLESTYLE
  2
AcDbTableStyle
  3
ObjectDBX Classes
 90
     4095
280
     0
281
     0
  0
CLASS
  1
MLEADERSTYLE
  2
AcDbMLeaderStyle
  3
ACDB_MLEADERSTYLE_CLASS
 90
     4095
280
     0
281
     0
  0
CLASS
  1
SUN
  2
AcDbSun
  3
SCENEOE
 90
     1153
280
     0
281
     0
  0
CLASS
  1
ACDBPLACEHOLDER
  2
AcDbPlaceHolder
  3
ObjectDBX Classes
 90
        0
280
     0
281
     0
  0
CLASS
  1
LAYOUT
  2
AcDbLayout
  3
ObjectDBX Classes
 90
        0
280
     0
281
     0
  0
ENDSEC
  0
SECTION
  2
TABLES
  0
TABLE
  2
VPORT
  5
8
330
0
100
AcDbSymbolTable
 70
     1
  0
VPORT
  5
29
330
8
100
AcDbSymbolTableRecord
100
AcDbViewportTableRecord
  2
*Active
 70
     0
 10
0.0
 20
0.0
 11
1.0
 21
1.0
 12
8.5
 22
5.5
 13
0.0
 23
0.0
 14
0.5
 24
0.5
 15
0.5
 25
0.5
 16
0.0
 26
0.0
 36
1.0
 17
0.0
 27
0.0
 37
0.0
 40
11.0
 41
1.5454545455
 42
50.0
 43
0.0
 44
0.0
 50
0.0
 51
0.0
 71
     0
 72
  2000
 73
     1
 74
     3
 75
     0
 76
     0
 77
     0
 78
     0
281
     0
 65
     1
110
0.0
120
0.0
130
0.0
111
1.0
121
0.0
131
0.0
112
0.0
122
1.0
132
0.0
 79
     0
146
0.0
  0
ENDTAB
  0
TABLE
  2
LTYPE
  5
5
330
0
100
AcDbSymbolTable
 70
     6
  0
LTYPE
  5
14
330
5
100
AcDbSymbolTableRecord
100
AcDbLinetypeTableRecord
  2
ByBlock
 70
     0
  3

 72
    65
 73
     0
 40
0.0
  0
LTYPE
  5
15
330
5
100
AcDbSymbolTableRecord
100
AcDbLinetypeTableRecord
  2
ByLayer
 70
     0
  3

 72
    65
 73
     0
 40
0.0
  0
LTYPE
  5
16
330
5
100
AcDbSymbolTableRecord
100
AcDbLinetypeTableRecord
  2
Continuous
 70
     0
  3
Solid line
 72
    65
 73
     0
 40
0.0
  0
LTYPE
  5
6E
330
5
100
AcDbSymbolTableRecord
100
AcDbLinetypeTableRecord
  2
HIDDEN
 70
     0
  3
Hidden __ __ __ __ __ __ __ __ __ __ __ __ __ __
 72
    65
 73
     2
 40
0.075
 49
0.05
 74
     0
 49
-0.025
 74
     0
  0
LTYPE
  5
6F
330
5
100
AcDbSymbolTableRecord
100
AcDbLinetypeTableRecord
  2
PHANTOM
 70
     0
  3
Phantom ______  __  __  ______  __  __  ______
 72
    65
 73
     6
 40
0.5
 49
0.25
 74
     0
 49
-0.05
 74
     0
 49
0.05
 74
     0
 49
-0.05
 74
     0
 49
0.05
 74
     0
 49
-0.05
 74
     0
  0
LTYPE
  5
70
330
5
100
AcDbSymbolTableRecord
100
AcDbLinetypeTableRecord
  2
CENTER
 70
     0
  3
Center ____ _ ____ _ ____ _ ____ _ ____ _ ____
 72
    65
 73
     4
 40
0.4
 49
0.25
 74
     0
 49
-0.05
 74
     0
 49
0.05
 74
     0
 49
-0.05
 74
     0
  0
LTYPE
  5
71
330
5
100
AcDbSymbolTableRecord
100
AcDbLinetypeTableRecord
  2
CENTERX2
 70
     0
  3
Center (2x) ________  __  ________  __  _____
 72
    65
 73
     4
 40
0.8
 49
0.5
 74
     0
 49
-0.1
 74
     0
 49
0.1
 74
     0
 49
-0.1
 74
     0
  0
LTYPE
  5
72
330
5
100
AcDbSymbolTableRecord
100
AcDbLinetypeTableRecord
  2
DOT2
 70
     0
  3
Dot (.5x) ........................................
 72
    65
 73
     2
 40
0.025
 49
0.0
 74
     0
 49
-0.025
 74
     0
  0
ENDTAB
  0
TABLE
  2
LAYER
  5
2
330
0
100
AcDbSymbolTable
 70
     2
  0
LAYER
  5
10
330
2
100
AcDbSymbolTableRecord
100
AcDbLayerTableRecord
  2
0
 70
     0
 62
     7
  6
Continuous
370
    -3
390
F
  0
LAYER
  5
73
330
2
100
AcDbSymbolTableRecord
100
AcDbLayerTableRecord
  2
FORMAT
 70
     0
 62
     7
  6
Continuous
370
    -3
390
F
  0
ENDTAB
  0
TABLE
  2
STYLE
  5
3
330
0
100
AcDbSymbolTable
 70
     6
  0
STYLE
  5
11
330
3
100
AcDbSymbolTableRecord
100
AcDbTextStyleTableRecord
  2
Standard
 70
     0
 40
0.0
 41
1.0
 50
0.0
 71
     0
 42
0.125
  3
txt
  4

  0
STYLE
  5
175
330
3
100
AcDbSymbolTableRecord
100
AcDbTextStyleTableRecord
  2
SLDTEXTSTYLE0
 70
     0
 40
0.0
 41
0.75
 50
0.0
 71
     0
 42
0.125
  3
TXT
  4

  0
STYLE
  5
186
330
3
100
AcDbSymbolTableRecord
100
AcDbTextStyleTableRecord
  2
SLDTEXTSTYLE1
 70
     0
 40
0.0
 41
0.6944444444
 50
0.0
 71
     0
 42
0.125
  3
TXT
  4

  0
STYLE
  5
197
330
3
100
AcDbSymbolTableRecord
100
AcDbTextStyleTableRecord
  2
SLDTEXTSTYLE2
 70
     0
 40
0.0
 41
0.6875
 50
0.0
 71
     0
 42
0.125
  3
TXT
  4

  0
STYLE
  5
1A8
330
3
100
AcDbSymbolTableRecord
100
AcDbTextStyleTableRecord
  2
SLDTEXTSTYLE3
 70
     0
 40
0.0
 41
0.7
 50
0.0
 71
     0
 42
0.125
  3
TXT
  4

  0
STYLE
  5
1B1
330
3
100
AcDbSymbolTableRecord
100
AcDbTextStyleTableRecord
  2
SLDTEXTSTYLE4
 70
     0
 40
0.0
 41
0.7466068965
 50
0.0
 71
     0
 42
0.125
  3
TXT
  4

  0
ENDTAB
  0
TABLE
  2
VIEW
  5
6
330
0
100
AcDbSymbolTable
 70
     0
  0
ENDTAB
  0
TABLE
  2
UCS
  5
7
330
0
100
AcDbSymbolTable
 70
     0
  0
ENDTAB
  0
TABLE
  2
APPID
  5
9
330
0
100
AcDbSymbolTable
 70
     1
  0
APPID
  5
12
330
9
100
AcDbSymbolTableRecord
100
AcDbRegAppTableRecord
  2
ACAD
 70
     0
  0
ENDTAB
  0
TABLE
  2
DIMSTYLE
  5
A
330
0
100
AcDbSymbolTable
 70
     1
100
AcDbDimStyleTable
  0
DIMSTYLE
105
27
330
A
100
AcDbSymbolTableRecord
100
AcDbDimStyleTableRecord
  2
Standard
 70
     0
178
     0
340
11
  0
ENDTAB
  0
TABLE
  2
BLOCK_RECORD
  5
1
330
0
100
AcDbSymbolTable
 70
    10
  0
BLOCK_RECORD
  5
1F
330
1
100
AcDbSymbolTableRecord
100
AcDbBlockTableRecord
  2
*Model_Space
340
22
  0
BLOCK_RECORD
  5
1B
330
1
100
AcDbSymbolTableRecord
100
AcDbBlockTableRecord
  2
*Paper_Space
340
1E
  0
BLOCK_RECORD
  5
23
330
1
100
AcDbSymbolTableRecord
100
AcDbBlockTableRecord
  2
*Paper_Space0
340
26
  0
BLOCK_RECORD
  5
172
330
1
100
AcDbSymbolTableRecord
100
AcDbBlockTableRecord
  2
SW_NOTE_0
340
0
102
{BLKREFS
331
178
102
}
  0
BLOCK_RECORD
  5
179
330
1
100
AcDbSymbolTableRecord
100
AcDbBlockTableRecord
  2
SW_NOTE_1
340
0
102
{BLKREFS
331
183
102
}
  0
BLOCK_RECORD
  5
18C
330
1
100
AcDbSymbolTableRecord
100
AcDbBlockTableRecord
  2
SW_NOTE_2
340
0
102
{BLKREFS
331
191
102
}
  0
BLOCK_RECORD
  5
199
330
1
100
AcDbSymbolTableRecord
100
AcDbBlockTableRecord
  2
SW_NOTE_3
340
0
102
{BLKREFS
331
1A0
102
}
  0
BLOCK_RECORD
  5
1A2
330
1
100
AcDbSymbolTableRecord
100
AcDbBlockTableRecord
  2
SW_NOTE_4
340
0
102
{BLKREFS
331
1AC
102
}
  0
BLOCK_RECORD
  5
1AE
330
1
100
AcDbSymbolTableRecord
100
AcDbBlockTableRecord
  2
SW_NOTE_5
340
0
102
{BLKREFS
331
1C3
102
}
  0
BLOCK_RECORD
  5
1C4
330
1
100
AcDbSymbolTableRecord
100
AcDbBlockTableRecord
  2
SW_NOTE_6
340
0
102
{BLKREFS
331
1CD
102
}
  0
BLOCK_RECORD
  5
1ED
330
1
100
AcDbSymbolTableRecord
100
AcDbBlockTableRecord
  2
SW_NOTE_7
340
0
102
{BLKREFS
331
1F4
102
}
  0
BLOCK_RECORD
  5
1F6
330
1
100
AcDbSymbolTableRecord
100
AcDbBlockTableRecord
  2
SW_TABLEANNOTATION_0
340
0
102
{BLKREFS
331
211
102
}
  0
ENDTAB
  0
ENDSEC
  0
SECTION
  2
BLOCKS
  0
BLOCK
  5
20
330
1F
100
AcDbEntity
  8
0
100
AcDbBlockBegin
  2
*Model_Space
 70
     0
 10
0.0
 20
0.0
 30
0.0
  3
*Model_Space
  1

  0
ENDBLK
  5
21
330
1F
100
AcDbEntity
  8
0
100
AcDbBlockEnd
  0
BLOCK
  5
1C
330
1B
100
AcDbEntity
 67
     1
  8
0
100
AcDbBlockBegin
  2
*Paper_Space
 70
     0
 10
0.0
 20
0.0
 30
0.0
  3
*Paper_Space
  1

  0
ENDBLK
  5
1D
330
1B
100
AcDbEntity
 67
     1
  8
0
100
AcDbBlockEnd
  0
BLOCK
  5
24
330
23
100
AcDbEntity
  8
0
100
AcDbBlockBegin
  2
*Paper_Space0
 70
     0
 10
0.0
 20
0.0
 30
0.0
  3
*Paper_Space0
  1

  0
ENDBLK
  5
25
330
23
100
AcDbEntity
  8
0
100
AcDbBlockEnd
  0
BLOCK
  5
173
330
172
100
AcDbEntity
  8
0
100
AcDbBlockBegin
  2
SW_NOTE_0
 70
     0
 10
0.0
 20
0.0
 30
0.0
  3
SW_NOTE_0
  1

  0
MTEXT
  5
176
330
172
100
AcDbEntity
  8
FORMAT
 62
     0
100
AcDbMText
 10
2.02734375
 20
0.4834004024
 30
0.0
 40
0.375
 41
0.0
 71
     2
 72
     1
  1
\LMINI ENCODER
  7
SLDTEXTSTYLE0
 73
     1
 44
1.0
  0
MTEXT
  5
177
330
172
100
AcDbEntity
  8
FORMAT
 62
     0
100
AcDbMText
 10
2.0373699414
 20
-0.001495446
 30
0.0
 40
0.375
 41
0.0
 71
     2
 72
     1
  1
\LPACKAGE
  7
SLDTEXTSTYLE0
 73
     1
 44
1.0
  0
ENDBLK
  5
174
330
172
100
AcDbEntity
  8
0
100
AcDbBlockEnd
  0
BLOCK
  5
17A
330
179
100
AcDbEntity
  8
0
100
AcDbBlockBegin
  2
SW_NOTE_1
 70
     0
 10
0.0
 20
0.0
 30
0.0
  3
SW_NOTE_1
  1

  0
MTEXT
  5
17C
330
179
100
AcDbEntity
  8
FORMAT
 62
     0
100
AcDbMText
 10
0.0
 20
0.3222669349
 30
0.0
 40
0.25
 41
0.0
 71
     1
 72
     1
  1
\LINDEX
  7
SLDTEXTSTYLE0
 73
     1
 44
1.0
  0
MTEXT
  5
17D
330
179
100
AcDbEntity
  8
FORMAT
 62
     0
100
AcDbMText
 10
0.3937007786
 20
-0.0032366093
 30
0.0
 40
0.125
 41
0.0
 71
     1
 72
     1
  1
COVER PAGE
  7
SLDTEXTSTYLE0
 73
     1
 44
1.0
  0
MTEXT
  5
17E
330
179
100
AcDbEntity
  8
FORMAT
 62
     0
100
AcDbMText
 10
0.0
 20
-0.0032366093
 30
0.0
 40
0.125
 41
0.0
 71
     1
 72
     1
  1
(1)
  7
SLDTEXTSTYLE0
 73
     1
 44
1.0
  0
MTEXT
  5
17F
330
179
100
AcDbEntity
  8
FORMAT
 62
     0
100
AcDbMText
 10
0.3937007786
 20
-0.1676066839
 30
0.0
 40
0.125
 41
0.0
 71
     1
 72
     1
  1
DIMENSIONS WITH WHEEL
  7
SLDTEXTSTYLE0
 73
     1
 44
1.0
  0
MTEXT
  5
180
330
179
100
AcDbEntity
  8
FORMAT
 62
     0
100
AcDbMText
 10
0.0
 20
-0.1676066839
 30
0.0
 40
0.125
 41
0.0
 71
     1
 72
     1
  1
(2)
  7
SLDTEXTSTYLE0
 73
     1
 44
1.0
  0
MTEXT
  5
181
330
179
100
AcDbEntity
  8
FORMAT
 62
     0
100
AcDbMText
 10
0.3937007786
 20
-0.3319767584
 30
0.0
 40
0.125
 41
0.0
 71
     1
 72
     1
  1
DIMENSIONS WITHOUT WHEEL
  7
SLDTEXTSTYLE0
 73
     1
 44
1.0
  0
MTEXT
  5
182
330
179
100
AcDbEntity
  8
FORMAT
 62
     0
100
AcDbMText
 10
0.0
 20
-0.3319767584
 30
0.0
 40
0.125
 41
0.0
 71
     1
 72
     1
  1
(3)
  7
SLDTEXTSTYLE0
 73
     1
 44
1.0
  0
ENDBLK
  5
17B
330
179
100
AcDbEntity
  8
0
100
AcDbBlockEnd
  0
BLOCK
  5
18D
330
18C
100
AcDbEntity
  8
0
100
AcDbBlockBegin
  2
SW_NOTE_2
 70
     0
 10
0.0
 20
0.0
 30
0.0
  3
SW_NOTE_2
  1

  0
MTEXT
  5
18F
330
18C
100
AcDbEntity
  8
0
  6
Continuous
 62
     0
370
     0
100
AcDbMText
 10
0.0
 20
0.0773440644
 30
0.0
 40
0.06
 41
0.0
 71
     1
 72
     1
  1
INTERPRET GEOMETRIC
  7
SLDTEXTSTYLE0
 73
     1
 44
1.0
  0
MTEXT
  5
190
330
18C
100
AcDbEntity
  8
0
  6
Continuous
 62
     0
370
     0
100
AcDbMText
 10
0.0
 20
-0.0220260102
 30
0.0
 40
0.06
 41
0.0
 71
     1
 72
     1
  1
TOLERANCING PER: ASME Y14.5
  7
SLDTEXTSTYLE0
 73
     1
 44
1.0
  0
ENDBLK
  5
18E
330
18C
100
AcDbEntity
  8
0
100
AcDbBlockEnd
  0
BLOCK
  5
19A
330
199
100
AcDbEntity
  8
0
100
AcDbBlockBegin
  2
SW_NOTE_3
 70
     0
 10
0.0
 20
0.0
 30
0.0
  3
SW_NOTE_3
  1

  0
MTEXT
  5
19C
330
199
100
AcDbEntity
  8
FORMAT
 62
     0
100
AcDbMText
 10
0.5240885417
 20
0.1342778896
 30
0.0
 40
0.1041666667
 41
0.0
 71
     2
 72
     1
  1
LASERLINC, INC.
  7
SLDTEXTSTYLE0
 73
     1
 44
1.0
  0
MTEXT
  5
19D
330
199
100
AcDbEntity
  8
FORMAT
 62
     0
100
AcDbMText
 10
0.5147039183
 20
-0.0027665963
 30
0.0
 40
0.0625
 41
0.0
 71
     2
 72
     1
  1
PHONE: 888-707-4892
  7
SLDTEXTSTYLE0
 73
     1
 44
1.0
  0
MTEXT
  5
19E
330
199
100
AcDbEntity
  8
FORMAT
 62
     0
100
AcDbMText
 10
0.5247734299
 20
-0.0860999286
 30
0.0
 40
0.0625
 41
0.0
 71
     2
 72
     1
  1
INFO@LASERLINC.COM
  7
SLDTEXTSTYLE0
 73
     1
 44
1.0
  0
MTEXT
  5
19F
330
199
100
AcDbEntity
  8
FORMAT
 62
     0
100
AcDbMText
 10
0.5251278887
 20
-0.169433261
 30
0.0
 40
0.0625
 41
0.0
 71
     2
 72
     1
  1
WWW.LASERLINC.COM
  7
SLDTEXTSTYLE0
 73
     1
 44
1.0
  0
ENDBLK
  5
19B
330
199
100
AcDbEntity
  8
0
100
AcDbBlockEnd
  0
BLOCK
  5
1A3
330
1A2
100
AcDbEntity
  8
0
100
AcDbBlockBegin
  2
SW_NOTE_4
 70
     0
 10
0.0
 20
0.0
 30
0.0
  3
SW_NOTE_4
  1

  0
MTEXT
  5
1A5
330
1A2
100
AcDbEntity
  8
FORMAT
 62
     0
100
AcDbMText
 10
0.0
 20
0.0773440644
 30
0.0
 40
0.06
 41
0.0
 71
     1
 72
     1
  1
THE INFORMATION CONTAINED IN THIS
  7
SLDTEXTSTYLE0
 73
     1
 44
1.0
  0
MTEXT
  5
1A6
330
1A2
100
AcDbEntity
  8
FORMAT
 62
     0
100
AcDbMText
 10
0.0
 20
-0.0220260102
 30
0.0
 40
0.06
 41
0.0
 71
     1
 72
     1
  1
DRAWING IS THE SOLE PROPERTY OF
  7
SLDTEXTSTYLE0
 73
     1
 44
1.0
  0
MTEXT
  5
1A7
330
1A2
100
AcDbEntity
  8
FORMAT
 62
     0
100
AcDbMText
 10
0.0
 20
-0.1213960848
 30
0.0
 40
0.06
 41
0.0
 71
     1
 72
     1
  1
LASERLINC, INC.  ANY REPRODUCTION IN
  7
SLDTEXTSTYLE0
 73
     1
 44
1.0
  0
MTEXT
  5
1A9
330
1A2
100
AcDbEntity
  8
FORMAT
 62
     0
100
AcDbMText
 10
0.0
 20
-0.2207661593
 30
0.0
 40
0.06
 41
0.0
 71
     1
 72
     1
  1
PART OR AS A WHOLE WITHOUT THE
  7
SLDTEXTSTYLE3
 73
     1
 44
1.0
  0
MTEXT
  5
1AA
330
1A2
100
AcDbEntity
  8
FORMAT
 62
     0
100
AcDbMText
 10
0.0
 20
-0.3201362339
 30
0.0
 40
0.06
 41
0.0
 71
     1
 72
     1
  1
WRITTEN PERMISSION OF LASERLINC, INC IS
  7
SLDTEXTSTYLE0
 73
     1
 44
1.0
  0
MTEXT
  5
1AB
330
1A2
100
AcDbEntity
  8
FORMAT
 62
     0
100
AcDbMText
 10
0.0
 20
-0.4195063085
 30
0.0
 40
0.06
 41
0.0
 71
     1
 72
     1
  1
PROHIBITED.
  7
SLDTEXTSTYLE0
 73
     1
 44
1.0
  0
ENDBLK
  5
1A4
330
1A2
100
AcDbEntity
  8
0
100
AcDbBlockEnd
  0
BLOCK
  5
1AF
330
1AE
100
AcDbEntity
  8
0
100
AcDbBlockBegin
  2
SW_NOTE_5
 70
     0
 10
0.0
 20
0.0
 30
0.0
  3
SW_NOTE_5
  1

  0
MTEXT
  5
1B2
330
1AE
100
AcDbEntity
  8
FORMAT
 62
     0
100
AcDbMText
 10
0.0
 20
0.0805667337
 30
0.0
 40
0.0625
 41
0.0
 71
     1
 72
     1
  1
DIMENSIONS ARE IN INCHES
  7
SLDTEXTSTYLE4
 73
     1
 44
1.0
  0
MTEXT
  5
1B3
330
1AE
100
AcDbEntity
  8
FORMAT
 62
     0
100
AcDbMText
 10
0.0
 20
-0.0027665986
 30
0.0
 40
0.0625
 41
0.0
 71
     1
 72
     1
  1
TOLERANCES:
  7
SLDTEXTSTYLE4
 73
     1
 44
1.0
  0
MTEXT
  5
1B4
330
1AE
100
AcDbEntity
  8
FORMAT
 62
     0
100
AcDbMText
 10
0.0
 20
-0.0860999309
 30
0.0
 40
0.0625
 41
0.0
 71
     1
 72
     1
  1
ANGLES
  7
SLDTEXTSTYLE4
 73
     1
 44
1.0
  0
MTEXT
  5
1B5
330
1AE
100
AcDbEntity
  8
FORMAT
 62
     0
100
AcDbMText
 10
0.3435416514
 20
-0.0860999309
 30
0.0
 40
0.0625
 41
0.0
 71
     1
 72
     1
  1
%%p
  7
SLDTEXTSTYLE4
 73
     1
 44
1.0
  0
MTEXT
  5
1B6
330
1AE
100
AcDbEntity
  8
FORMAT
 62
     0
100
AcDbMText
 10
0.4031249931
 20
-0.0860999309
 30
0.0
 40
0.0625
 41
0.0
 71
     1
 72
     1
  1
.25
  7
SLDTEXTSTYLE4
 73
     1
 44
1.0
  0
MTEXT
  5
1B7
330
1AE
100
AcDbEntity
  8
FORMAT
 62
     0
100
AcDbMText
 10
0.5129398045
 20
-0.0860999309
 30
0.0
 40
0.0625
 41
0.0
 71
     1
 72
     1
  1
%%d
  7
SLDTEXTSTYLE4
 73
     1
 44
1.0
  0
MTEXT
  5
1B8
330
1AE
100
AcDbEntity
  8
FORMAT
 62
     0
100
AcDbMText
 10
0.0
 20
-0.1694332632
 30
0.0
 40
0.0625
 41
0.0
 71
     1
 72
     1
  1
TWO PLACE DECIMAL
  7
SLDTEXTSTYLE4
 73
     1
 44
1.0
  0
MTEXT
  5
1B9
330
1AE
100
AcDbEntity
  8
FORMAT
 62
     0
100
AcDbMText
 10
0.9056250381
 20
-0.1694332632
 30
0.0
 40
0.0625
 41
0.0
 71
     1
 72
     1
  1
%%p
  7
SLDTEXTSTYLE4
 73
     1
 44
1.0
  0
MTEXT
  5
1BA
330
1AE
100
AcDbEntity
  8
FORMAT
 62
     0
100
AcDbMText
 10
0.9652083432
 20
-0.1694332632
 30
0.0
 40
0.0625
 41
0.0
 71
     1
 72
     1
  1
0.010
  7
SLDTEXTSTYLE4
 73
     1
 44
1.0
  0
MTEXT
  5
1BB
330
1AE
100
AcDbEntity
  8
FORMAT
 62
     0
100
AcDbMText
 10
0.0
 20
-0.2527665956
 30
0.0
 40
0.0625
 41
0.0
 71
     1
 72
     1
  1
THREE PLACE DECIMAL
  7
SLDTEXTSTYLE4
 73
     1
 44
1.0
  0
MTEXT
  5
1BC
330
1AE
100
AcDbEntity
  8
FORMAT
 62
     0
100
AcDbMText
 10
0.8977778021
 20
-0.2527665956
 30
0.0
 40
0.0625
 41
0.0
 71
     1
 72
     1
  1
%%p
  7
SLDTEXTSTYLE4
 73
     1
 44
1.0
  0
MTEXT
  5
1BD
330
1AE
100
AcDbEntity
  8
FORMAT
 62
     0
100
AcDbMText
 10
0.9573611071
 20
-0.2527665956
 30
0.0
 40
0.0625
 41
0.0
 71
     1
 72
     1
  1
0.005
  7
SLDTEXTSTYLE4
 73
     1
 44
1.0
  0
MTEXT
  5
1BE
330
1AE
100
AcDbEntity
  8
FORMAT
 62
     0
100
AcDbMText
 10
0.0
 20
-0.3360999279
 30
0.0
 40
0.0625
 41
0.0
 71
     1
 72
     1
  1
FOUR PLACE DECIMAL
  7
SLDTEXTSTYLE4
 73
     1
 44
1.0
  0
MTEXT
  5
1BF
330
1AE
100
AcDbEntity
  8
FORMAT
 62
     0
100
AcDbMText
 10
0.8890972157
 20
-0.3360999279
 30
0.0
 40
0.0625
 41
0.0
 71
     1
 72
     1
  1
%%p
  7
SLDTEXTSTYLE4
 73
     1
 44
1.0
  0
MTEXT
  5
1C0
330
1AE
100
AcDbEntity
  8
FORMAT
 62
     0
100
AcDbMText
 10
0.9486805941
 20
-0.3360999279
 30
0.0
 40
0.0625
 41
0.0
 71
     1
 72
     1
  1
0.0005
  7
SLDTEXTSTYLE4
 73
     1
 44
1.0
  0
MTEXT
  5
1C1
330
1AE
100
AcDbEntity
  8
FORMAT
 62
     0
100
AcDbMText
 10
0.0
 20
-0.4194332602
 30
0.0
 40
0.0625
 41
0.0
 71
     1
 72
     1
  1
UNMARKED FILLETS/CHAMFER .06
  7
SLDTEXTSTYLE4
 73
     1
 44
1.0
  0
MTEXT
  5
1C2
330
1AE
100
AcDbEntity
  8
FORMAT
 62
     0
100
AcDbMText
 10
0.0
 20
-0.5027665925
 30
0.0
 40
0.0625
 41
0.0
 71
     1
 72
     1
  1
DE-BURR ALL PARTS
  7
SLDTEXTSTYLE4
 73
     1
 44
1.0
  0
ENDBLK
  5
1B0
330
1AE
100
AcDbEntity
  8
0
100
AcDbBlockEnd
  0
BLOCK
  5
1C5
330
1C4
100
AcDbEntity
  8
0
100
AcDbBlockBegin
  2
SW_NOTE_6
 70
     0
 10
0.0
 20
0.0
 30
0.0
  3
SW_NOTE_6
  1

  0
MTEXT
  5
1C7
330
1C4
100
AcDbEntity
  8
FORMAT
 62
     0
100
AcDbMText
 10
0.0
 20
0.1074223116
 30
0.0
 40
0.0833333333
 41
0.0
 71
     1
 72
     1
  1
63 RA SURFACE FINISH
  7
SLDTEXTSTYLE0
 73
     1
 44
1.0
  0
MTEXT
  5
1C8
330
1C4
100
AcDbEntity
  8
FORMAT
 62
     0
100
AcDbMText
 10
0.0
 20
-0.0036887981
 30
0.0
 40
0.0833333333
 41
0.0
 71
     1
 72
     1
  1
ALL FEATURES MUST MEET
  7
SLDTEXTSTYLE0
 73
     1
 44
1.0
  0
MTEXT
  5
1C9
330
1C4
100
AcDbEntity
  8
FORMAT
 62
     0
100
AcDbMText
 10
0.0
 20
-0.1147999079
 30
0.0
 40
0.0833333333
 41
0.0
 71
     1
 72
     1
  1
SPECIFICATION AFTER PLATING
  7
SLDTEXTSTYLE0
 73
     1
 44
1.0
  0
MTEXT
  5
1CA
330
1C4
100
AcDbEntity
  8
FORMAT
 62
     0
100
AcDbMText
 10
0.0
 20
-0.2259110177
 30
0.0
 40
0.0833333333
 41
0.0
 71
     1
 72
     1
  1
BEFORE POWDER-COAT IF
  7
SLDTEXTSTYLE0
 73
     1
 44
1.0
  0
MTEXT
  5
1CB
330
1C4
100
AcDbEntity
  8
FORMAT
 62
     0
100
AcDbMText
 10
0.0
 20
-0.3370221274
 30
0.0
 40
0.0833333333
 41
0.0
 71
     1
 72
     1
  1
PLATED OR POWDER-COATED
  7
SLDTEXTSTYLE0
 73
     1
 44
1.0
  0
MTEXT
  5
1CC
330
1C4
100
AcDbEntity
  8
FORMAT
 62
     0
100
AcDbMText
 10
0.0
 20
-0.4481332372
 30
0.0
 40
0.0833333333
 41
0.0
 71
     1
 72
     1
  1
SEE FINISH
  7
SLDTEXTSTYLE0
 73
     1
 44
1.0
  0
ENDBLK
  5
1C6
330
1C4
100
AcDbEntity
  8
0
100
AcDbBlockEnd
  0
BLOCK
  5
1EE
330
1ED
100
AcDbEntity
  8
0
100
AcDbBlockBegin
  2
SW_NOTE_7
 70
     0
 10
0.0
 20
0.0
 30
0.0
  3
SW_NOTE_7
  1

  0
MTEXT
  5
1F0
330
1ED
100
AcDbEntity
  8
FORMAT
 62
     0
100
AcDbMText
 10
0.0
 20
0.1342778896
 30
0.0
 40
0.1041666667
 41
0.0
 71
     1
 72
     1
  1
DE-BURR AND BREAK
  7
SLDTEXTSTYLE0
 73
     1
 44
1.0
  0
MTEXT
  5
1F1
330
1ED
100
AcDbEntity
  8
FORMAT
 62
     0
100
AcDbMText
 10
0.0
 20
-0.0439810737
 30
0.0
 40
0.1041666667
 41
0.0
 71
     1
 72
     1
  1
ALL SHARP EDGES
  7
SLDTEXTSTYLE0
 73
     1
 44
1.0
  0
MTEXT
  5
1F2
330
1ED
100
AcDbEntity
  8
FORMAT
 62
     0
100
AcDbMText
 10
0.0
 20
-0.2222400461
 30
0.0
 40
0.1041666667
 41
0.0
 71
     1
 72
     1
  1
BEFORE FINISH AND/OR
  7
SLDTEXTSTYLE0
 73
     1
 44
1.0
  0
MTEXT
  5
1F3
330
1ED
100
AcDbEntity
  8
FORMAT
 62
     0
100
AcDbMText
 10
0.0
 20
-0.4004990185
 30
0.0
 40
0.1041666667
 41
0.0
 71
     1
 72
     1
  1
SHIPPING
  7
SLDTEXTSTYLE0
 73
     1
 44
1.0
  0
ENDBLK
  5
1EF
330
1ED
100
AcDbEntity
  8
0
100
AcDbBlockEnd
  0
BLOCK
  5
1F7
330
1F6
100
AcDbEntity
  8
0
100
AcDbBlockBegin
  2
SW_TABLEANNOTATION_0
 70
     0
 10
0.0
 20
0.0
 30
0.0
  3
SW_TABLEANNOTATION_0
  1

  0
LINE
  5
1F9
330
1F6
100
AcDbEntity
  8
FORMAT
 62
     0
100
AcDbLine
 10
0.0
 20
0.0
 30
0.0
 11
0.0
 21
-0.7592895849
 31
0.0
  0
LINE
  5
1FA
330
1F6
100
AcDbEntity
  8
FORMAT
 62
     0
100
AcDbLine
 10
0.0
 20
-0.7592895849
 30
0.0
 11
8.000144801
 21
-0.7592895849
 31
0.0
  0
LINE
  5
1FB
330
1F6
100
AcDbEntity
  8
FORMAT
 62
     0
100
AcDbLine
 10
8.000144801
 20
-0.7592895849
 30
0.0
 11
8.000144801
 21
0.0
 31
0.0
  0
LINE
  5
1FC
330
1F6
100
AcDbEntity
  8
FORMAT
 62
     0
100
AcDbLine
 10
8.000144801
 20
0.0
 30
0.0
 11
0.0
 21
0.0
 31
0.0
  0
LINE
  5
1FD
330
1F6
100
AcDbEntity
  8
FORMAT
 62
     0
100
AcDbLine
 10
0.8327855102
 20
-0.2530661157
 30
0.0
 11
0.8327855102
 21
-0.5061322314
 31
0.0
  0
LINE
  5
1FE
330
1F6
100
AcDbEntity
  8
FORMAT
 62
     0
100
AcDbLine
 10
1.2609472016
 20
-0.2530661157
 30
0.0
 11
1.2609472016
 21
-0.5061322314
 31
0.0
  0
LINE
  5
1FF
330
1F6
100
AcDbEntity
  8
FORMAT
 62
     0
100
AcDbLine
 10
6.039892352
 20
-0.2530661157
 30
0.0
 11
6.039892352
 21
-0.5061322314
 31
0.0
  0
LINE
  5
200
330
1F6
100
AcDbEntity
  8
FORMAT
 62
     0
100
AcDbLine
 10
6.9834836917
 20
-0.2530661157
 30
0.0
 11
6.9834836917
 21
-0.5061322314
 31
0.0
  0
LINE
  5
201
330
1F6
100
AcDbEntity
  8
FORMAT
 62
     0
100
AcDbLine
 10
0.0
 20
-0.2530661157
 30
0.0
 11
8.000144801
 21
-0.2530661157
 31
0.0
  0
LINE
  5
202
330
1F6
100
AcDbEntity
  8
FORMAT
 62
     0
100
AcDbLine
 10
0.8327855102
 20
-0.5061322314
 30
0.0
 11
0.8327855102
 21
-0.7592895849
 31
0.0
  0
LINE
  5
203
330
1F6
100
AcDbEntity
  8
FORMAT
 62
     0
100
AcDbLine
 10
1.2609472016
 20
-0.5061322314
 30
0.0
 11
1.2609472016
 21
-0.7592895849
 31
0.0
  0
LINE
  5
204
330
1F6
100
AcDbEntity
  8
FORMAT
 62
     0
100
AcDbLine
 10
6.039892352
 20
-0.5061322314
 30
0.0
 11
6.039892352
 21
-0.7592895849
 31
0.0
  0
LINE
  5
205
330
1F6
100
AcDbEntity
  8
FORMAT
 62
     0
100
AcDbLine
 10
6.9834836917
 20
-0.5061322314
 30
0.0
 11
6.9834836917
 21
-0.7592895849
 31
0.0
  0
LINE
  5
206
330
1F6
100
AcDbEntity
  8
FORMAT
 62
     0
100
AcDbLine
 10
0.0
 20
-0.5061322314
 30
0.0
 11
8.000144801
 21
-0.5061322314
 31
0.0
  0
MTEXT
  5
207
330
1F6
100
AcDbEntity
  8
FORMAT
 62
     0
100
AcDbMText
 10
3.5915654263
 20
-0.0616843083
 30
0.0
 40
0.125
 41
0.0
 71
     1
 72
     1
  1
REVISIONS
  7
SLDTEXTSTYLE0
 73
     1
 44
1.0
  0
MTEXT
  5
208
330
1F6
100
AcDbEntity
  8
FORMAT
 62
     0
100
AcDbMText
 10
0.1976427555
 20
-0.314750424
 30
0.0
 40
0.125
 41
0.0
 71
     1
 72
     1
  1
ZONE
  7
SLDTEXTSTYLE0
 73
     1
 44
1.0
  0
MTEXT
  5
209
330
1F6
100
AcDbEntity
  8
FORMAT
 62
     0
100
AcDbMText
 10
0.8699566279
 20
-0.314750424
 30
0.0
 40
0.125
 41
0.0
 71
     1
 72
     1
  1
REV.
  7
SLDTEXTSTYLE0
 73
     1
 44
1.0
  0
MTEXT
  5
20A
330
1F6
100
AcDbEntity
  8
FORMAT
 62
     0
100
AcDbMText
 10
3.1274162619
 20
-0.314750424
 30
0.0
 40
0.125
 41
0.0
 71
     1
 72
     1
  1
DESCRIPTION
  7
SLDTEXTSTYLE0
 73
     1
 44
1.0
  0
MTEXT
  5
20B
330
1F6
100
AcDbEntity
  8
FORMAT
 62
     0
100
AcDbMText
 10
6.3078685897
 20
-0.314750424
 30
0.0
 40
0.125
 41
0.0
 71
     1
 72
     1
  1
DATE
  7
SLDTEXTSTYLE0
 73
     1
 44
1.0
  0
MTEXT
  5
20C
330
1F6
100
AcDbEntity
  8
FORMAT
 62
     0
100
AcDbMText
 10
7.0433767434
 20
-0.314750424
 30
0.0
 40
0.125
 41
0.0
 71
     1
 72
     1
  1
APPROVED
  7
SLDTEXTSTYLE0
 73
     1
 44
1.0
  0
MTEXT
  5
20D
330
1F6
100
AcDbEntity
  8
FORMAT
 62
     0
100
AcDbMText
 10
0.9852344117
 20
-0.5678621586
 30
0.0
 40
0.125
 41
0.0
 71
     1
 72
     1
  1
A
  7
SLDTEXTSTYLE0
 73
     1
 44
1.0
  0
MTEXT
  5
20E
330
1F6
100
AcDbEntity
  8
FORMAT
 62
     0
100
AcDbMText
 10
3.2559753335
 20
-0.5678621586
 30
0.0
 40
0.125
 41
0.0
 71
     1
 72
     1
  1
CHECK-IN
  7
SLDTEXTSTYLE0
 73
     1
 44
1.0
  0
MTEXT
  5
20F
330
1F6
100
AcDbEntity
  8
FORMAT
 62
     0
100
AcDbMText
 10
6.1616880517
 20
-0.5678621586
 30
0.0
 40
0.125
 41
0.0
 71
     1
 72
     1
  1
3/5/2021
  7
SLDTEXTSTYLE0
 73
     1
 44
1.0
  0
MTEXT
  5
210
330
1F6
100
AcDbEntity
  8
FORMAT
 62
     0
100
AcDbMText
 10
7.3440711948
 20
-0.5678621586
 30
0.0
 40
0.125
 41
0.0
 71
     1
 72
     1
  1
TRA
  7
SLDTEXTSTYLE0
 73
     1
 44
1.0
  0
ENDBLK
  5
1F8
330
1F6
100
AcDbEntity
  8
0
100
AcDbBlockEnd
  0
ENDSEC
  0
SECTION
  2
ENTITIES
  0
LINE
  5
74
330
1F
100
AcDbEntity
  8
FORMAT
100
AcDbLine
 10
2.5
 20
10.5
 30
0.0
 11
2.5
 21
10.625
 31
0.0
  0
LINE
  5
75
330
1F
100
AcDbEntity
  8
FORMAT
100
AcDbLine
 10
0.5
 20
0.5
 30
0.0
 11
16.5
 21
0.5
 31
0.0
  0
LINE
  5
76
330
1F
100
AcDbEntity
  8
FORMAT
100
AcDbLine
 10
0.5
 20
0.5
 30
0.0
 11
0.5
 21
10.5
 31
0.0
  0
LINE
  5
77
330
1F
100
AcDbEntity
  8
FORMAT
100
AcDbLine
 10
0.5
 20
10.5
 30
0.0
 11
16.5
 21
10.5
 31
0.0
  0
LINE
  5
78
330
1F
100
AcDbEntity
  8
FORMAT
100
AcDbLine
 10
16.5
 20
0.5
 30
0.0
 11
16.5
 21
10.5
 31
0.0
  0
LINE
  5
79
330
1F
100
AcDbEntity
  8
FORMAT
100
AcDbLine
 10
0.5
 20
2.1666666667
 30
0.0
 11
0.375
 21
2.1666666667
 31
0.0
  0
LINE
  5
7A
330
1F
100
AcDbEntity
  8
FORMAT
100
AcDbLine
 10
14.5
 20
10.625
 30
0.0
 11
14.5
 21
10.5
 31
0.0
  0
LINE
  5
7B
330
1F
100
AcDbEntity
  8
FORMAT
100
AcDbLine
 10
4.5
 20
10.625
 30
0.0
 11
4.5
 21
10.5
 31
0.0
  0
LINE
  5
7C
330
1F
100
AcDbEntity
  8
FORMAT
100
AcDbLine
 10
6.5
 20
10.625
 30
0.0
 11
6.5
 21
10.5
 31
0.0
  0
LINE
  5
7D
330
1F
100
AcDbEntity
  8
FORMAT
100
AcDbLine
 10
8.5
 20
10.625
 30
0.0
 11
8.5
 21
10.5
 31
0.0
  0
LINE
  5
7E
330
1F
100
AcDbEntity
  8
FORMAT
100
AcDbLine
 10
10.5
 20
10.625
 30
0.0
 11
10.5
 21
10.5
 31
0.0
  0
LINE
  5
7F
330
1F
100
AcDbEntity
  8
FORMAT
100
AcDbLine
 10
12.5
 20
10.625
 30
0.0
 11
12.5
 21
10.5
 31
0.0
  0
LINE
  5
80
330
1F
100
AcDbEntity
  8
FORMAT
  6
Continuous
 62
     7
370
    18
100
AcDbLine
 10
12.5
 20
0.3356542056
 30
0.0
 11
12.5
 21
0.5
 31
0.0
  0
LINE
  5
81
330
1F
100
AcDbEntity
  8
FORMAT
  6
Continuous
 62
     7
370
    18
100
AcDbLine
 10
10.5
 20
0.3356542056
 30
0.0
 11
10.5
 21
0.5
 31
0.0
  0
LINE
  5
82
330
1F
100
AcDbEntity
  8
FORMAT
  6
Continuous
 62
     7
370
    18
100
AcDbLine
 10
8.5
 20
0.3356542056
 30
0.0
 11
8.5
 21
0.5
 31
0.0
  0
LINE
  5
83
330
1F
100
AcDbEntity
  8
FORMAT
  6
Continuous
 62
     7
370
    18
100
AcDbLine
 10
6.5
 20
0.3356542056
 30
0.0
 11
6.5
 21
0.5
 31
0.0
  0
LINE
  5
84
330
1F
100
AcDbEntity
  8
FORMAT
  6
Continuous
 62
     7
370
    18
100
AcDbLine
 10
4.5
 20
0.3356542056
 30
0.0
 11
4.5
 21
0.5
 31
0.0
  0
LINE
  5
85
330
1F
100
AcDbEntity
  8
FORMAT
  6
Continuous
 62
     7
370
    18
100
AcDbLine
 10
14.5
 20
0.3356542056
 30
0.0
 11
14.5
 21
0.5
 31
0.0
  0
LINE
  5
86
330
1F
100
AcDbEntity
  8
FORMAT
  6
Continuous
 62
     7
370
    18
100
AcDbLine
 10
2.5
 20
0.5
 30
0.0
 11
2.5
 21
0.3356542056
 31
0.0
  0
LINE
  5
87
330
1F
100
AcDbEntity
  8
FORMAT
100
AcDbLine
 10
0.5
 20
3.8333333333
 30
0.0
 11
0.375
 21
3.8333333333
 31
0.0
  0
LINE
  5
88
330
1F
100
AcDbEntity
  8
FORMAT
100
AcDbLine
 10
0.375
 20
8.8333333333
 30
0.0
 11
0.5
 21
8.8333333333
 31
0.0
  0
LINE
  5
89
330
1F
100
AcDbEntity
  8
FORMAT
100
AcDbLine
 10
10.6682571288
 20
2.4643479659
 30
0.0
 11
9.0310478652
 21
2.4643479659
 31
0.0
  0
LINE
  5
8A
330
1F
100
AcDbEntity
  8
FORMAT
100
AcDbLine
 10
0.375
 20
5.5
 30
0.0
 11
0.5
 21
5.5
 31
0.0
  0
LINE
  5
8B
330
1F
100
AcDbEntity
  8
FORMAT
  6
Continuous
 62
     7
370
    18
100
AcDbLine
 10
16.5
 20
7.1666666667
 30
0.0
 11
16.625
 21
7.1666666667
 31
0.0
  0
LINE
  5
8C
330
1F
100
AcDbEntity
  8
FORMAT
100
AcDbLine
 10
0.5
 20
7.1666666667
 30
0.0
 11
0.375
 21
7.1666666667
 31
0.0
  0
LINE
  5
8D
330
1F
100
AcDbEntity
  8
FORMAT
  6
Continuous
 62
     7
370
    18
100
AcDbLine
 10
16.625
 20
5.5
 30
0.0
 11
16.5
 21
5.5
 31
0.0
  0
LINE
  5
8E
330
1F
100
AcDbEntity
  8
FORMAT
  6
Continuous
 62
     7
370
    18
100
AcDbLine
 10
16.625
 20
8.8333333333
 30
0.0
 11
16.5
 21
8.8333333333
 31
0.0
  0
LINE
  5
8F
330
1F
100
AcDbEntity
  8
FORMAT
  6
Continuous
 62
     7
370
    18
100
AcDbLine
 10
16.5
 20
3.8333333333
 30
0.0
 11
16.625
 21
3.8333333333
 31
0.0
  0
LINE
  5
90
330
1F
100
AcDbEntity
  8
FORMAT
  6
Continuous
 62
     7
370
    18
100
AcDbLine
 10
16.5
 20
2.1666666667
 30
0.0
 11
16.625
 21
2.1666666667
 31
0.0
  0
LINE
  5
91
330
1F
100
AcDbEntity
  8
FORMAT
100
AcDbLine
 10
9.0310478652
 20
2.4643479659
 30
0.0
 11
9.0310478652
 21
1.4143479659
 31
0.0
  0
LINE
  5
92
330
1F
100
AcDbEntity
  8
FORMAT
100
AcDbLine
 10
9.0310478652
 20
2.2367361821
 30
0.0
 11
10.6682571288
 21
2.2367361821
 31
0.0
  0
LINE
  5
93
330
1F
100
AcDbEntity
  8
FORMAT
100
AcDbLine
 10
10.6682571288
 20
0.5
 30
0.0
 11
10.6682571288
 21
2.4643479659
 31
0.0
  0
LINE
  5
94
330
1F
100
AcDbEntity
  8
FORMAT
100
AcDbLine
 10
12.0497082514
 20
2.4643479659
 30
0.0
 11
12.0497082514
 21
0.5
 31
0.0
  0
LINE
  5
95
330
1F
100
AcDbEntity
  8
FORMAT
100
AcDbLine
 10
13.7412800044
 20
2.4643479659
 30
0.0
 11
13.7412800044
 21
0.5
 31
0.0
  0
LINE
  5
96
330
1F
100
AcDbEntity
  8
FORMAT
100
AcDbLine
 10
13.7412800044
 20
0.7128858394
 30
0.0
 11
16.5
 21
0.7128858394
 31
0.0
  0
LINE
  5
97
330
1F
100
AcDbEntity
  8
FORMAT
100
AcDbLine
 10
13.7412800044
 20
1.2198630749
 30
0.0
 11
16.5
 21
1.2198630749
 31
0.0
  0
LINE
  5
98
330
1F
100
AcDbEntity
  8
FORMAT
100
AcDbLine
 10
13.7412800044
 20
1.8357007257
 30
0.0
 11
16.5
 21
1.8357007257
 31
0.0
  0
LINE
  5
99
330
1F
100
AcDbEntity
  8
FORMAT
100
AcDbLine
 10
14.1313909254
 20
1.2198630749
 30
0.0
 11
14.1313909254
 21
0.7128858394
 31
0.0
  0
LINE
  5
9A
330
1F
100
AcDbEntity
  8
FORMAT
100
AcDbLine
 10
9.0310478652
 20
1.2520123068
 30
0.0
 11
10.6682647087
 21
1.2520123068
 31
0.0
  0
LINE
  5
9B
330
1F
100
AcDbEntity
  8
FORMAT
100
AcDbLine
 10
15.9226308779
 20
1.2198630749
 30
0.0
 11
15.9226308779
 21
0.7128858394
 31
0.0
  0
LINE
  5
9C
330
1F
100
AcDbEntity
  8
FORMAT
100
AcDbLine
 10
15.1206400022
 20
0.7128858394
 30
0.0
 11
15.1206400022
 21
0.5
 31
0.0
  0
LINE
  5
9D
330
1F
100
AcDbEntity
  8
FORMAT
100
AcDbLine
 10
12.0497082514
 20
1.9018479659
 30
0.0
 11
13.7412800044
 21
1.9018479659
 31
0.0
  0
LINE
  5
9E
330
1F
100
AcDbEntity
  8
FORMAT
100
AcDbLine
 10
12.0497082514
 20
2.0893479659
 30
0.0
 11
13.7412800044
 21
2.0893479659
 31
0.0
  0
LINE
  5
9F
330
1F
100
AcDbEntity
  8
FORMAT
100
AcDbLine
 10
12.0497082514
 20
2.2768479659
 30
0.0
 11
13.7412800044
 21
2.2768479659
 31
0.0
  0
LINE
  5
A0
330
1F
100
AcDbEntity
  8
FORMAT
100
AcDbLine
 10
13.7412800044
 20
1.3393479659
 30
0.0
 11
12.0497082514
 21
1.3393479659
 31
0.0
  0
LINE
  5
A1
330
1F
100
AcDbEntity
  8
FORMAT
100
AcDbLine
 10
13.2622310388
 20
2.4643479659
 30
0.0
 11
13.2622310388
 21
1.3393479659
 31
0.0
  0
LINE
  5
A2
330
1F
100
AcDbEntity
  8
FORMAT
100
AcDbLine
 10
12.7937038342
 20
2.4643479659
 30
0.0
 11
12.7937038342
 21
1.3393479659
 31
0.0
  0
LINE
  5
A3
330
1F
100
AcDbEntity
  8
FORMAT
100
AcDbLine
 10
10.6682571288
 20
0.9637233598
 30
0.0
 11
12.0497082514
 21
0.9637233598
 31
0.0
  0
LINE
  5
A4
330
1F
100
AcDbEntity
  8
FORMAT
100
AcDbLine
 10
10.6682647087
 20
1.2520123068
 30
0.0
 11
12.0497158313
 21
1.2520123068
 31
0.0
  0
LINE
  5
A5
330
1F
100
AcDbEntity
  8
FORMAT
100
AcDbLine
 10
10.6682571288
 20
2.4643479659
 30
0.0
 11
16.5
 21
2.4643479659
 31
0.0
  0
LINE
  5
A6
330
1F
100
AcDbEntity
  8
FORMAT
100
AcDbLine
 10
12.0497082514
 20
2.3100081789
 30
0.0
 11
10.6682571288
 21
2.3100081789
 31
0.0
  0
LINE
  5
A7
330
1F
100
AcDbEntity
  8
FORMAT
100
AcDbLine
 10
13.7412800044
 20
1.7143479659
 30
0.0
 11
12.0497082514
 21
1.7143479659
 31
0.0
  0
LINE
  5
A8
330
1F
100
AcDbEntity
  8
FORMAT
100
AcDbLine
 10
13.7412800044
 20
1.5268479659
 30
0.0
 11
12.0497082514
 21
1.5268479659
 31
0.0
  0
LINE
  5
A9
330
1F
100
AcDbEntity
  8
FORMAT
100
AcDbLine
 10
10.6682571288
 20
1.5037233598
 30
0.0
 11
12.0497082514
 21
1.5037233598
 31
0.0
  0
LINE
  5
AA
330
1F
100
AcDbEntity
  8
FORMAT
100
AcDbLine
 10
9.0310478652
 20
0.5
 30
0.0
 11
9.0310478652
 21
1.4143479659
 31
0.0
  0
LINE
  5
AB
330
1F
100
AcDbEntity
  8
FORMAT
100
AcDbLine
 10
10.6682571288
 20
1.4143479659
 30
0.0
 11
9.0310478652
 21
1.4143479659
 31
0.0
  0
LINE
  5
AC
330
1F
100
AcDbEntity
  8
FORMAT
100
AcDbLine
 10
10.6682571288
 20
0.6962748291
 30
0.0
 11
12.0497082514
 21
0.6962748291
 31
0.0
  0
LINE
  5
AD
330
1F
100
AcDbEntity
  8
FORMAT
100
AcDbLine
 10
14.0721541128
 20
2.1767361821
 30
0.0
 11
14.0721541128
 21
2.2367361821
 31
0.0
  0
LINE
  5
AE
330
1F
100
AcDbEntity
  8
FORMAT
100
AcDbLine
 10
14.0459041128
 20
2.2629861821
 30
0.0
 11
13.9671541128
 21
2.2629861821
 31
0.0
  0
LINE
  5
AF
330
1F
100
AcDbEntity
  8
FORMAT
100
AcDbLine
 10
13.9409041128
 20
2.2367361821
 30
0.0
 11
13.9409041128
 21
2.1579861821
 31
0.0
  0
LINE
  5
B0
330
1F
100
AcDbEntity
  8
FORMAT
100
AcDbLine
 10
13.9671541128
 20
2.1317361821
 30
0.0
 11
14.0271541128
 21
2.1317361821
 31
0.0
  0
LINE
  5
B1
330
1F
100
AcDbEntity
  8
FORMAT
100
AcDbLine
 10
14.0534041128
 20
2.1054861821
 30
0.0
 11
14.0534041128
 21
2.0454861821
 31
0.0
  0
LINE
  5
B2
330
1F
100
AcDbEntity
  8
FORMAT
100
AcDbLine
 10
14.0796541128
 20
2.0192361821
 30
0.0
 11
14.1584041128
 21
2.0192361821
 31
0.0
  0
LINE
  5
B3
330
1F
100
AcDbEntity
  8
FORMAT
100
AcDbLine
 10
14.1846541128
 20
2.0454861821
 30
0.0
 11
14.1846541128
 21
2.1242361821
 31
0.0
  0
LINE
  5
B4
330
1F
100
AcDbEntity
  8
FORMAT
100
AcDbLine
 10
14.1584041128
 20
2.1504861821
 30
0.0
 11
14.0984041128
 21
2.1504861821
 31
0.0
  0
LINE
  5
B5
330
1F
100
AcDbEntity
  8
FORMAT
100
AcDbLine
 10
13.9409041128
 20
2.3743611821
 30
0.0
 11
13.9409041128
 21
2.2956111821
 31
0.0
  0
LINE
  5
B6
330
1F
100
AcDbEntity
  8
FORMAT
100
AcDbLine
 10
13.9671541128
 20
2.2693611821
 30
0.0
 11
14.0459041128
 21
2.2693611821
 31
0.0
  0
LINE
  5
B7
330
1F
100
AcDbEntity
  8
FORMAT
100
AcDbLine
 10
14.0721541128
 20
2.2956111821
 30
0.0
 11
14.0721541128
 21
2.3743611821
 31
0.0
  0
LINE
  5
B8
330
1F
100
AcDbEntity
  8
FORMAT
100
AcDbLine
 10
14.0459041128
 20
2.4006111821
 30
0.0
 11
13.9671541128
 21
2.4006111821
 31
0.0
  0
LINE
  5
B9
330
1F
100
AcDbEntity
  8
FORMAT
100
AcDbLine
 10
13.9334041128
 20
2.1579861821
 30
0.0
 11
13.9334041128
 21
2.2367361821
 31
0.0
  0
LINE
  5
BA
330
1F
100
AcDbEntity
  8
FORMAT
100
AcDbLine
 10
13.9071541128
 20
2.2629861821
 30
0.0
 11
13.8284041128
 21
2.2629861821
 31
0.0
  0
LINE
  5
BB
330
1F
100
AcDbEntity
  8
FORMAT
100
AcDbLine
 10
13.8021541128
 20
2.2367361821
 30
0.0
 11
13.8021541128
 21
2.1579861821
 31
0.0
  0
LINE
  5
BC
330
1F
100
AcDbEntity
  8
FORMAT
100
AcDbLine
 10
13.8284041128
 20
2.1317361821
 30
0.0
 11
13.9071541128
 21
2.1317361821
 31
0.0
  0
LINE
  5
BD
330
1F
100
AcDbEntity
  8
FORMAT
100
AcDbLine
 10
14.2172791128
 20
2.0192361821
 30
0.0
 11
14.2960291128
 21
2.0192361821
 31
0.0
  0
LINE
  5
BE
330
1F
100
AcDbEntity
  8
FORMAT
100
AcDbLine
 10
14.3222791128
 20
2.0454861821
 30
0.0
 11
14.3222791128
 21
2.1242361821
 31
0.0
  0
LINE
  5
BF
330
1F
100
AcDbEntity
  8
FORMAT
100
AcDbLine
 10
14.2960291128
 20
2.1504861821
 30
0.0
 11
14.2172791128
 21
2.1504861821
 31
0.0
  0
LINE
  5
C0
330
1F
100
AcDbEntity
  8
FORMAT
100
AcDbLine
 10
14.1910291128
 20
2.1242361821
 30
0.0
 11
14.1910291128
 21
2.0454861821
 31
0.0
  0
LINE
  5
C1
330
1F
100
AcDbEntity
  8
FORMAT
100
AcDbLine
 10
14.0796541128
 20
1.8804861821
 30
0.0
 11
14.1584041128
 21
1.8804861821
 31
0.0
  0
LINE
  5
C2
330
1F
100
AcDbEntity
  8
FORMAT
100
AcDbLine
 10
14.1846541128
 20
1.9067361821
 30
0.0
 11
14.1846541128
 21
1.9854861821
 31
0.0
  0
LINE
  5
C3
330
1F
100
AcDbEntity
  8
FORMAT
100
AcDbLine
 10
14.1584041128
 20
2.0117361821
 30
0.0
 11
14.0796541128
 21
2.0117361821
 31
0.0
  0
LINE
  5
C4
330
1F
100
AcDbEntity
  8
FORMAT
100
AcDbLine
 10
14.0534041128
 20
1.9854861821
 30
0.0
 11
14.0534041128
 21
1.9067361821
 31
0.0
  0
LINE
  5
C5
330
1F
100
AcDbEntity
  8
FORMAT
100
AcDbLine
 10
14.3935291128
 20
2.2223611821
 30
0.0
 11
14.3881547638
 21
2.2223611821
 31
0.0
  0
LINE
  5
C6
330
1F
100
AcDbEntity
  8
FORMAT
100
AcDbLine
 10
14.3881547638
 20
2.2223611821
 30
0.0
 11
14.3556124461
 21
2.2061111821
 31
0.0
  0
LINE
  5
C7
330
1F
100
AcDbEntity
  8
FORMAT
100
AcDbLine
 10
14.3556124461
 20
2.2061111821
 30
0.0
 11
14.3574321076
 21
2.2006945154
 31
0.0
  0
LINE
  5
C8
330
1F
100
AcDbEntity
  8
FORMAT
100
AcDbLine
 10
14.3718624461
 20
2.1681945154
 30
0.0
 11
14.3718624461
 21
2.0490278487
 31
0.0
  0
LINE
  5
C9
330
1F
100
AcDbEntity
  8
FORMAT
100
AcDbLine
 10
14.3556124461
 20
2.0246528487
 30
0.0
 11
14.3556124461
 21
2.0192361821
 31
0.0
  0
LINE
  5
CA
330
1F
100
AcDbEntity
  8
FORMAT
100
AcDbLine
 10
14.3556124461
 20
2.0192361821
 30
0.0
 11
14.4097791128
 21
2.0192361821
 31
0.0
  0
LINE
  5
CB
330
1F
100
AcDbEntity
  8
FORMAT
100
AcDbLine
 10
14.4097791128
 20
2.0192361821
 30
0.0
 11
14.4097791128
 21
2.0246528487
 31
0.0
  0
LINE
  5
CC
330
1F
100
AcDbEntity
  8
FORMAT
100
AcDbLine
 10
14.3935291128
 20
2.0490278487
 30
0.0
 11
14.3935291128
 21
2.2223611821
 31
0.0
  0
LINE
  5
CD
330
1F
100
AcDbEntity
  8
FORMAT
100
AcDbLine
 10
14.5289457795
 20
2.0360363123
 30
0.0
 11
14.5289457795
 21
2.0436111821
 31
0.0
  0
LINE
  5
CE
330
1F
100
AcDbEntity
  8
FORMAT
100
AcDbLine
 10
14.5099874461
 20
2.0634158696
 30
0.0
 11
14.5099874461
 21
2.1088227706
 31
0.0
  0
LINE
  5
CF
330
1F
100
AcDbEntity
  8
FORMAT
100
AcDbLine
 10
14.4504041128
 20
2.1222798019
 30
0.0
 11
14.4501502066
 21
2.1305740727
 31
0.0
  0
LINE
  5
D0
330
1F
100
AcDbEntity
  8
FORMAT
100
AcDbLine
 10
14.4883207795
 20
2.1135623539
 30
0.0
 11
14.4883207795
 21
2.1086111821
 31
0.0
  0
LINE
  5
D1
330
1F
100
AcDbEntity
  8
FORMAT
100
AcDbLine
 10
14.6562374461
 20
2.1031945154
 30
0.0
 11
14.7347791128
 21
2.1031945154
 31
0.0
  0
LINE
  5
D2
330
1F
100
AcDbEntity
  8
FORMAT
100
AcDbLine
 10
14.7347791128
 20
2.0679861821
 30
0.0
 11
14.7320707795
 21
2.0706945154
 31
0.0
  0
LINE
  5
D3
330
1F
100
AcDbEntity
  8
FORMAT
100
AcDbLine
 10
14.6129041128
 20
2.1546528487
 30
0.0
 11
14.6101957795
 21
2.1546528487
 31
0.0
  0
LINE
  5
D4
330
1F
100
AcDbEntity
  8
FORMAT
100
AcDbLine
 10
14.5451957795
 20
2.0598611821
 30
0.0
 11
14.5424874461
 21
2.0598611821
 31
0.0
  0
LINE
  5
D5
330
1F
100
AcDbEntity
  8
FORMAT
100
AcDbLine
 10
14.5424874461
 20
2.0598611821
 30
0.0
 11
14.5424874461
 21
2.0165278487
 31
0.0
  0
LINE
  5
D6
330
1F
100
AcDbEntity
  8
FORMAT
100
AcDbLine
 10
14.5424874461
 20
2.0165278487
 30
0.0
 11
14.5451957795
 21
2.0165278487
 31
0.0
  0
LINE
  5
D7
330
1F
100
AcDbEntity
  8
FORMAT
100
AcDbLine
 10
14.5955115347
 20
2.0932498539
 30
0.0
 11
14.5771456493
 21
2.1034061039
 31
0.0
  0
LINE
  5
D8
330
1F
100
AcDbEntity
  8
FORMAT
100
AcDbLine
 10
14.6101957795
 20
2.1113195154
 30
0.0
 11
14.6129041128
 21
2.1113195154
 31
0.0
  0
LINE
  5
D9
330
1F
100
AcDbEntity
  8
FORMAT
100
AcDbLine
 10
14.6129041128
 20
2.1113195154
 30
0.0
 11
14.6129041128
 21
2.1546528487
 31
0.0
  0
LINE
  5
DA
330
1F
100
AcDbEntity
  8
FORMAT
100
AcDbLine
 10
14.8908250312
 20
2.0192361821
 30
0.0
 11
14.8908250312
 21
2.2142361821
 31
0.0
  0
LINE
  5
DB
330
1F
100
AcDbEntity
  8
FORMAT
100
AcDbLine
 10
14.7835291128
 20
2.1546528487
 30
0.0
 11
14.7785356232
 21
2.1546528487
 31
0.0
  0
LINE
  5
DC
330
1F
100
AcDbEntity
  8
FORMAT
100
AcDbLine
 10
14.7785356232
 20
2.1546528487
 30
0.0
 11
14.7456124461
 21
2.1384028487
 31
0.0
  0
LINE
  5
DD
330
1F
100
AcDbEntity
  8
FORMAT
100
AcDbLine
 10
14.7456124461
 20
2.1384028487
 30
0.0
 11
14.7466703888
 21
2.1329861821
 31
0.0
  0
LINE
  5
DE
330
1F
100
AcDbEntity
  8
FORMAT
100
AcDbLine
 10
14.7618624461
 20
2.1004861821
 30
0.0
 11
14.7618624461
 21
2.0490278487
 31
0.0
  0
LINE
  5
DF
330
1F
100
AcDbEntity
  8
FORMAT
100
AcDbLine
 10
14.7456124461
 20
2.0246528487
 30
0.0
 11
14.7456124461
 21
2.0192361821
 31
0.0
  0
LINE
  5
E0
330
1F
100
AcDbEntity
  8
FORMAT
100
AcDbLine
 10
14.7456124461
 20
2.0192361821
 30
0.0
 11
14.8051957795
 21
2.0192361821
 31
0.0
  0
LINE
  5
E1
330
1F
100
AcDbEntity
  8
FORMAT
100
AcDbLine
 10
14.8051957795
 20
2.0192361821
 30
0.0
 11
14.8051957795
 21
2.0246528487
 31
0.0
  0
LINE
  5
E2
330
1F
100
AcDbEntity
  8
FORMAT
100
AcDbLine
 10
14.7835291128
 20
2.0490278487
 30
0.0
 11
14.7835291128
 21
2.1101769373
 31
0.0
  0
LINE
  5
E3
330
1F
100
AcDbEntity
  8
FORMAT
100
AcDbLine
 10
14.7835291128
 20
2.1218566248
 30
0.0
 11
14.7835291128
 21
2.1546528487
 31
0.0
  0
LINE
  5
E4
330
1F
100
AcDbEntity
  8
FORMAT
100
AcDbLine
 10
14.8908250312
 20
2.2142361821
 30
0.0
 11
14.8669474802
 21
2.2142361821
 31
0.0
  0
LINE
  5
E5
330
1F
100
AcDbEntity
  8
FORMAT
100
AcDbLine
 10
14.8669474802
 20
2.2142361821
 30
0.0
 11
14.8669474802
 21
2.0192361821
 31
0.0
  0
LINE
  5
E6
330
1F
100
AcDbEntity
  8
FORMAT
100
AcDbLine
 10
14.8669474802
 20
2.0192361821
 30
0.0
 11
14.8908250312
 21
2.0192361821
 31
0.0
  0
LINE
  5
E7
330
1F
100
AcDbEntity
  8
FORMAT
100
AcDbLine
 10
14.9465393169
 20
2.0192361821
 30
0.0
 11
14.9465393169
 21
2.1585218964
 31
0.0
  0
LINE
  5
E8
330
1F
100
AcDbEntity
  8
FORMAT
100
AcDbLine
 10
14.9465393169
 20
2.1585218964
 30
0.0
 11
14.9226617659
 21
2.1585218964
 31
0.0
  0
LINE
  5
E9
330
1F
100
AcDbEntity
  8
FORMAT
100
AcDbLine
 10
14.9226617659
 20
2.1585218964
 30
0.0
 11
14.9226617659
 21
2.0192361821
 31
0.0
  0
LINE
  5
EA
330
1F
100
AcDbEntity
  8
FORMAT
100
AcDbLine
 10
14.9226617659
 20
2.0192361821
 30
0.0
 11
14.9465393169
 21
2.0192361821
 31
0.0
  0
LINE
  5
EB
330
1F
100
AcDbEntity
  8
FORMAT
100
AcDbLine
 10
14.9465393169
 20
2.190358631
 30
0.0
 11
14.9465393169
 21
2.2142361821
 31
0.0
  0
LINE
  5
EC
330
1F
100
AcDbEntity
  8
FORMAT
100
AcDbLine
 10
14.9465393169
 20
2.2142361821
 30
0.0
 11
14.9226617659
 21
2.2142361821
 31
0.0
  0
LINE
  5
ED
330
1F
100
AcDbEntity
  8
FORMAT
100
AcDbLine
 10
14.9226617659
 20
2.2142361821
 30
0.0
 11
14.9226617659
 21
2.190358631
 31
0.0
  0
LINE
  5
EE
330
1F
100
AcDbEntity
  8
FORMAT
100
AcDbLine
 10
14.9226617659
 20
2.190358631
 30
0.0
 11
14.9465393169
 21
2.190358631
 31
0.0
  0
LINE
  5
EF
330
1F
100
AcDbEntity
  8
FORMAT
100
AcDbLine
 10
15.2131719699
 20
2.0590321004
 30
0.0
 11
15.1892944189
 21
2.0590321004
 31
0.0
  0
LINE
  5
F0
330
1F
100
AcDbEntity
  8
FORMAT
100
AcDbLine
 10
15.1892944189
 20
2.1147463861
 30
0.0
 11
15.2131719699
 21
2.1147463861
 31
0.0
  0
LINE
  5
F1
330
1F
100
AcDbEntity
  8
FORMAT
100
AcDbLine
 10
14.6562374461
 20
2.1113195154
 30
0.0
 11
14.7076957795
 21
2.1113195154
 31
0.0
  0
LINE
  5
F2
330
1F
100
AcDbEntity
  8
FORMAT
100
AcDbLine
 10
15.0022536026
 20
2.142603529
 30
0.0
 11
15.0022536026
 21
2.1585218964
 31
0.0
  0
LINE
  5
F3
330
1F
100
AcDbEntity
  8
FORMAT
100
AcDbLine
 10
15.0022536026
 20
2.1585218964
 30
0.0
 11
14.9783760516
 21
2.1585218964
 31
0.0
  0
LINE
  5
F4
330
1F
100
AcDbEntity
  8
FORMAT
100
AcDbLine
 10
14.9783760516
 20
2.1585218964
 30
0.0
 11
14.9783760516
 21
2.0192361821
 31
0.0
  0
LINE
  5
F5
330
1F
100
AcDbEntity
  8
FORMAT
100
AcDbLine
 10
14.9783760516
 20
2.0192361821
 30
0.0
 11
15.0022536026
 21
2.0192361821
 31
0.0
  0
LINE
  5
F6
330
1F
100
AcDbEntity
  8
FORMAT
100
AcDbLine
 10
15.0022536026
 20
2.0192361821
 30
0.0
 11
15.0022536026
 21
2.1200939627
 31
0.0
  0
LINE
  5
F7
330
1F
100
AcDbEntity
  8
FORMAT
100
AcDbLine
 10
15.0579678883
 20
2.1102071642
 30
0.0
 11
15.0579678883
 21
2.0192361821
 31
0.0
  0
LINE
  5
F8
330
1F
100
AcDbEntity
  8
FORMAT
100
AcDbLine
 10
15.0579678883
 20
2.0192361821
 30
0.0
 11
15.0818454393
 21
2.0192361821
 31
0.0
  0
LINE
  5
F9
330
1F
100
AcDbEntity
  8
FORMAT
100
AcDbLine
 10
15.0818454393
 20
2.0192361821
 30
0.0
 11
15.0818454393
 21
2.1085282739
 31
0.0
  0
LINE
  5
FA
330
1F
100
AcDbEntity
  8
FORMAT
100
AcDbLine
 10
14.4883207795
 20
2.0478429529
 30
0.0
 11
14.4883207795
 21
2.1004861821
 31
0.0
  0
LINE
  5
FB
330
1F
100
AcDbEntity
  8
FORMAT
100
AcDbLine
 10
13.8959041128
 20
2.2404861821
 30
0.0
 11
13.8396541128
 21
2.2404861821
 31
0.0
  0
LINE
  5
FC
330
1F
100
AcDbEntity
  8
FORMAT
100
AcDbLine
 10
13.8246541128
 20
2.2254861821
 30
0.0
 11
13.8246541128
 21
2.1692361821
 31
0.0
  0
LINE
  5
FD
330
1F
100
AcDbEntity
  8
FORMAT
100
AcDbLine
 10
13.8396541128
 20
2.1542361821
 30
0.0
 11
13.8959041128
 21
2.1542361821
 31
0.0
  0
LINE
  5
FE
330
1F
100
AcDbEntity
  8
FORMAT
100
AcDbLine
 10
13.9109041128
 20
2.1692361821
 30
0.0
 11
13.9109041128
 21
2.2254861821
 31
0.0
  0
LINE
  5
FF
330
1F
100
AcDbEntity
  8
FORMAT
100
AcDbLine
 10
14.0768506959
 20
1.9742361821
 30
0.0
 11
14.0768506959
 21
1.9179861821
 31
0.0
  0
LINE
  5
100
330
1F
100
AcDbEntity
  8
FORMAT
100
AcDbLine
 10
14.0918506959
 20
1.9029861821
 30
0.0
 11
14.1481006959
 21
1.9029861821
 31
0.0
  0
LINE
  5
101
330
1F
100
AcDbEntity
  8
FORMAT
100
AcDbLine
 10
14.1631006959
 20
1.9179861821
 30
0.0
 11
14.1631006959
 21
1.9742361821
 31
0.0
  0
LINE
  5
102
330
1F
100
AcDbEntity
  8
FORMAT
100
AcDbLine
 10
14.1481006959
 20
1.9892361821
 30
0.0
 11
14.0918506959
 21
1.9892361821
 31
0.0
  0
ARC
  5
103
330
1F
100
AcDbEntity
  8
FORMAT
100
AcDbCircle
 10
14.0984041128
 20
2.1767361821
 30
0.0
 40
0.0262500000000028
100
AcDbArc
 50
180.0
 51
270.0
  0
ARC
  5
104
330
1F
100
AcDbEntity
  8
FORMAT
100
AcDbCircle
 10
14.0459041128
 20
2.2367361821
 30
0.0
 40
0.0262500000000006
100
AcDbArc
 50
0.0
 51
90.0
  0
ARC
  5
105
330
1F
100
AcDbEntity
  8
FORMAT
100
AcDbCircle
 10
13.9671541128
 20
2.2367361821
 30
0.0
 40
0.0262500000000028
100
AcDbArc
 50
90.0
 51
180.0
  0
ARC
  5
106
330
1F
100
AcDbEntity
  8
FORMAT
100
AcDbCircle
 10
13.9671541128
 20
2.1579861821
 30
0.0
 40
0.0262500000000028
100
AcDbArc
 50
180.0
 51
270.0
  0
ARC
  5
107
330
1F
100
AcDbEntity
  8
FORMAT
100
AcDbCircle
 10
14.0271541128
 20
2.1054861821
 30
0.0
 40
0.0262499999999997
100
AcDbArc
 50
0.0
 51
90.0
  0
ARC
  5
108
330
1F
100
AcDbEntity
  8
FORMAT
100
AcDbCircle
 10
14.0796541128
 20
2.0454861821
 30
0.0
 40
0.026250000000001
100
AcDbArc
 50
180.0
 51
270.0
  0
ARC
  5
109
330
1F
100
AcDbEntity
  8
FORMAT
100
AcDbCircle
 10
14.1584041128
 20
2.0454861821
 30
0.0
 40
0.026250000000001
100
AcDbArc
 50
270.0
 51
0.0
  0
ARC
  5
10A
330
1F
100
AcDbEntity
  8
FORMAT
100
AcDbCircle
 10
14.1584041128
 20
2.1242361821
 30
0.0
 40
0.0262500000000006
100
AcDbArc
 50
0.0
 51
90.0
  0
ARC
  5
10B
330
1F
100
AcDbEntity
  8
FORMAT
100
AcDbCircle
 10
13.9671541128
 20
2.3743611821
 30
0.0
 40
0.0262500000000028
100
AcDbArc
 50
90.0
 51
180.0
  0
ARC
  5
10C
330
1F
100
AcDbEntity
  8
FORMAT
100
AcDbCircle
 10
13.9671541128
 20
2.2956111821
 30
0.0
 40
0.0262500000000028
100
AcDbArc
 50
180.0
 51
270.0
  0
ARC
  5
10D
330
1F
100
AcDbEntity
  8
FORMAT
100
AcDbCircle
 10
14.0459041128
 20
2.2956111821
 30
0.0
 40
0.0262499999999974
100
AcDbArc
 50
270.0
 51
0.0
  0
ARC
  5
10E
330
1F
100
AcDbEntity
  8
FORMAT
100
AcDbCircle
 10
14.0459041128
 20
2.3743611821
 30
0.0
 40
0.0262500000000001
100
AcDbArc
 50
0.0
 51
90.0
  0
ARC
  5
10F
330
1F
100
AcDbEntity
  8
FORMAT
100
AcDbCircle
 10
13.9071541128
 20
2.1579861821
 30
0.0
 40
0.026250000000001
100
AcDbArc
 50
270.0
 51
0.0
  0
ARC
  5
110
330
1F
100
AcDbEntity
  8
FORMAT
100
AcDbCircle
 10
13.9071541128
 20
2.2367361821
 30
0.0
 40
0.0262500000000006
100
AcDbArc
 50
0.0
 51
90.0
  0
ARC
  5
111
330
1F
100
AcDbEntity
  8
FORMAT
100
AcDbCircle
 10
13.8284041128
 20
2.2367361821
 30
0.0
 40
0.0262500000000006
100
AcDbArc
 50
90.0
 51
180.0
  0
ARC
  5
112
330
1F
100
AcDbEntity
  8
FORMAT
100
AcDbCircle
 10
13.8284041128
 20
2.1579861821
 30
0.0
 40
0.026250000000001
100
AcDbArc
 50
180.0
 51
270.0
  0
ARC
  5
113
330
1F
100
AcDbEntity
  8
FORMAT
100
AcDbCircle
 10
14.2172791128
 20
2.0454861821
 30
0.0
 40
0.026250000000001
100
AcDbArc
 50
180.0
 51
270.0
  0
ARC
  5
114
330
1F
100
AcDbEntity
  8
FORMAT
100
AcDbCircle
 10
14.2960291128
 20
2.0454861821
 30
0.0
 40
0.026250000000001
100
AcDbArc
 50
270.0
 51
0.0
  0
ARC
  5
115
330
1F
100
AcDbEntity
  8
FORMAT
100
AcDbCircle
 10
14.2960291128
 20
2.1242361821
 30
0.0
 40
0.026250000000001
100
AcDbArc
 50
0.0
 51
90.0
  0
ARC
  5
116
330
1F
100
AcDbEntity
  8
FORMAT
100
AcDbCircle
 10
14.2172791128
 20
2.1242361821
 30
0.0
 40
0.0262500000000006
100
AcDbArc
 50
90.0
 51
180.0
  0
ARC
  5
117
330
1F
100
AcDbEntity
  8
FORMAT
100
AcDbCircle
 10
14.0796541128
 20
1.9067361821
 30
0.0
 40
0.0262500000000008
100
AcDbArc
 50
180.0
 51
270.0
  0
ARC
  5
118
330
1F
100
AcDbEntity
  8
FORMAT
100
AcDbCircle
 10
14.1584041128
 20
1.9067361821
 30
0.0
 40
0.0262500000000028
100
AcDbArc
 50
270.0
 51
0.0
  0
ARC
  5
119
330
1F
100
AcDbEntity
  8
FORMAT
100
AcDbCircle
 10
14.1584041128
 20
1.9854861821
 30
0.0
 40
0.0262500000000028
100
AcDbArc
 50
0.0
 51
90.0
  0
ARC
  5
11A
330
1F
100
AcDbEntity
  8
FORMAT
100
AcDbCircle
 10
14.0796541128
 20
1.9854861821
 30
0.0
 40
0.0262500000000008
100
AcDbArc
 50
90.0
 51
180.0
  0
ARC
  5
11B
330
1F
100
AcDbEntity
  8
FORMAT
100
AcDbCircle
 10
13.8959041128
 20
2.2254861821
 30
0.0
 40
0.0149999999999988
100
AcDbArc
 50
0.0
 51
90.0
  0
ARC
  5
11C
330
1F
100
AcDbEntity
  8
FORMAT
100
AcDbCircle
 10
13.8396541128
 20
2.2254861821
 30
0.0
 40
0.0150000000000006
100
AcDbArc
 50
90.0
 51
180.0
  0
ARC
  5
11D
330
1F
100
AcDbEntity
  8
FORMAT
100
AcDbCircle
 10
13.8396541128
 20
2.1692361821
 30
0.0
 40
0.0150000000000006
100
AcDbArc
 50
180.0
 51
270.0
  0
ARC
  5
11E
330
1F
100
AcDbEntity
  8
FORMAT
100
AcDbCircle
 10
13.8959041128
 20
2.1692361821
 30
0.0
 40
0.0149999999999988
100
AcDbArc
 50
270.0
 51
0.0
  0
ARC
  5
11F
330
1F
100
AcDbEntity
  8
FORMAT
100
AcDbCircle
 10
14.0918506959
 20
1.9742361821
 30
0.0
 40
0.0150000000000023
100
AcDbArc
 50
90.0000000001
 51
180.0
  0
ARC
  5
120
330
1F
100
AcDbEntity
  8
FORMAT
100
AcDbCircle
 10
14.0918506959
 20
1.9179861821
 30
0.0
 40
0.0150000000000023
100
AcDbArc
 50
180.0
 51
270.0
  0
ARC
  5
121
330
1F
100
AcDbEntity
  8
FORMAT
100
AcDbCircle
 10
14.1481006959
 20
1.9179861821
 30
0.0
 40
0.0150000000000023
100
AcDbArc
 50
270.0
 51
0.0
  0
ARC
  5
122
330
1F
100
AcDbEntity
  8
FORMAT
100
AcDbCircle
 10
14.1481006959
 20
1.9742361821
 30
0.0
 40
0.0150000000000023
100
AcDbArc
 50
0.0
 51
90.0
  0
SPLINE
  5
123
330
1F
100
AcDbEntity
  8
FORMAT
100
AcDbSpline
210
0.0
220
0.0
230
1.0
 70
     8
 71
     3
 72
    11
 73
     7
 74
     0
 42
0.000000001
 43
0.00000001
 40
0.0
 40
0.0
 40
0.0
 40
0.0
 40
0.3028621169143471
 40
0.5690655900547563
 40
0.8017531526649039
 40
1.0
 40
1.0
 40
1.0
 40
1.0
 10
14.35743210759513
 20
2.200694515400635
 30
0.0
 10
14.35810276992378
 20
2.201047157233001
 30
0.0
 10
14.35936291714082
 20
2.201709756882168
 30
0.0
 10
14.36123414696635
 20
2.202432883402944
 30
0.0
 10
14.36292485010444
 20
2.202896890422313
 30
0.0
 10
14.36400311873363
 20
2.202953588360098
 30
0.0
 10
14.3644991648868
 20
2.202979671650635
 30
0.0
  0
SPLINE
  5
124
330
1F
100
AcDbEntity
  8
FORMAT
100
AcDbSpline
210
0.0
220
0.0
230
1.0
 70
     8
 71
     3
 72
    21
 73
    17
 74
     0
 42
0.000000001
 43
0.00000001
 40
0.0
 40
0.0
 40
0.0
 40
0.0
 40
0.0622028320633043
 40
0.1231977271578306
 40
0.1589102209089215
 40
0.2011396101503659
 40
0.2530852512781606
 40
0.3128992255846355
 40
0.3519668217595981
 40
0.4042781571662828
 40
0.4697935746295591
 40
0.5486026964729878
 40
0.6417651371989725
 40
0.7471433007404843
 40
0.8669202288846689
 40
1.0
 40
1.0
 40
1.0
 40
1.0
 10
14.3644991648868
 20
2.202979671650635
 30
0.0
 10
14.36530221849157
 20
2.202899271479406
 30
0.0
 10
14.36689273094271
 20
2.202740032453955
 30
0.0
 10
14.3685309803527
 20
2.201399746867435
 30
0.0
 10
14.36959131130924
 20
2.199979388891064
 30
0.0
 10
14.37019425337117
 20
2.198424685579201
 30
0.0
 10
14.37073236653076
 20
2.196543495596495
 30
0.0
 10
14.37108876225064
 20
2.194653436965295
 30
0.0
 10
14.37129117056965
 20
2.192740905231793
 30
0.0
 10
14.37146887604603
 20
2.190752717367738
 30
0.0
 10
14.37156754471806
 20
2.188253158316834
 30
0.0
 10
14.37172941755536
 20
2.185236210345837
 30
0.0
 10
14.37171527052493
 20
2.181707277755917
 30
0.0
 10
14.37184174916697
 20
2.177660193024863
 30
0.0
 10
14.37186860090721
 20
2.173103378572051
 30
0.0
 10
14.37186456844319
 20
2.169887204320794
 30
0.0
 10
14.3718624461368
 20
2.168194515400633
 30
0.0
  0
SPLINE
  5
125
330
1F
100
AcDbEntity
  8
FORMAT
100
AcDbSpline
210
0.0
220
0.0
230
1.0
 70
     8
 71
     3
 72
    19
 73
    15
 74
     0
 42
0.000000001
 43
0.00000001
 40
0.0
 40
0.0
 40
0.0
 40
0.0
 40
0.1594949193555815
 40
0.2924623176739249
 40
0.3969654306896305
 40
0.4749155667938845
 40
0.5370971805810326
 40
0.5938848956983983
 40
0.6456484587457363
 40
0.6949033414490116
 40
0.7488126481081321
 40
0.8155466528137586
 40
0.9001083339277649
 40
1.0
 40
1.0
 40
1.0
 40
1.0
 10
14.3718624461368
 20
2.049027848733966
 30
0.0
 10
14.37185209353549
 20
2.047179650474501
 30
0.0
 10
14.37183311019868
 20
2.043790650068293
 30
0.0
 10
14.37156282490386
 20
2.039195136169808
 30
0.0
 10
14.37108600140478
 20
2.035568979353279
 30
0.0
 10
14.3704215617211
 20
2.032801036919767
 30
0.0
 10
14.36951412888703
 20
2.030701374034262
 30
0.0
 10
14.36852282543512
 20
2.028976020936569
 30
0.0
 10
14.36729347929762
 20
2.027615055219552
 30
0.0
 10
14.36594567250689
 20
2.026405478835954
 30
0.0
 10
14.36411942018973
 20
2.025606499653055
 30
0.0
 10
14.36181129758077
 20
2.025016137406751
 30
0.0
 10
14.35890574511217
 20
2.024727989522219
 30
0.0
 10
14.35676939669399
 20
2.024679246026618
 30
0.0
 10
14.3556124461368
 20
2.024652848733966
 30
0.0
  0
SPLINE
  5
126
330
1F
100
AcDbEntity
  8
FORMAT
100
AcDbSpline
210
0.0
220
0.0
230
1.0
 70
     8
 71
     3
 72
    17
 73
    13
 74
     0
 42
0.000000001
 43
0.00000001
 40
0.0
 40
0.0
 40
0.0
 40
0.0
 40
0.1033675634697453
 40
0.1891410962904171
 40
0.2599231157167913
 40
0.3159076045178656
 40
0.4173277918572679
 40
0.5303798254941174
 40
0.6040754735300684
 40
0.7068842505964676
 40
0.8383425343504289
 40
1.0
 40
1.0
 40
1.0
 40
1.0
 10
14.40977911280347
 20
2.024652848733966
 30
0.0
 10
14.40857930167137
 20
2.024673797081236
 30
0.0
 10
14.40638389737578
 20
2.024712128190483
 30
0.0
 10
14.40337808221814
 20
2.025059771991644
 30
0.0
 10
14.40098874247099
 20
2.025709652955257
 30
0.0
 10
14.3985833500248
 20
2.026885695135147
 30
0.0
 10
14.39644881647615
 20
2.029296792032687
 30
0.0
 10
14.39489554977487
 20
2.032300701835449
 30
0.0
 10
14.39418041081635
 20
2.035602088161158
 30
0.0
 10
14.39380531985346
 20
2.039157767180812
 30
0.0
 10
14.39356389049556
 20
2.043749181427065
 30
0.0
 10
14.39354147517086
 20
2.047151449793584
 30
0.0
 10
14.39352911280347
 20
2.049027848733966
 30
0.0
  0
SPLINE
  5
127
330
1F
100
AcDbEntity
  8
FORMAT
100
AcDbSpline
210
0.0
220
0.0
230
1.0
 70
     8
 71
     3
 72
    23
 73
    19
 74
     0
 42
0.000000001
 43
0.00000001
 40
0.0
 40
0.0
 40
0.0
 40
0.0
 40
0.074992170225233
 40
0.1464126634568939
 40
0.2147845050843904
 40
0.2806659193079881
 40
0.3442746677644215
 40
0.4070838876043115
 40
0.4685215672275997
 40
0.5297280883948582
 40
0.5901823376230222
 40
0.6485356652039489
 40
0.7058096395271979
 40
0.7629084842704735
 40
0.819823539772264
 40
0.8782560263236776
 40
0.9377649775273206
 40
1.0
 40
1.0
 40
1.0
 40
1.0
 10
14.73477911280346
 20
2.103194515400634
 30
0.0
 10
14.73473272924338
 20
2.105100000780068
 30
0.0
 10
14.73464217124844
 20
2.108820218354028
 30
0.0
 10
14.7341042681711
 20
2.114257767004005
 30
0.0
 10
14.73314254340983
 20
2.119403367750226
 30
0.0
 10
14.73172404761436
 20
2.124233300724959
 30
0.0
 10
14.73000033443844
 20
2.128812454690745
 30
0.0
 10
14.72784342444955
 20
2.13308174149089
 30
0.0
 10
14.72528594352834
 20
2.137050569680425
 30
0.0
 10
14.72235969140049
 20
2.140676580876844
 30
0.0
 10
14.71917710285546
 20
2.143973813010121
 30
0.0
 10
14.71571649679033
 20
2.146822222106748
 30
0.0
 10
14.71206508324478
 20
2.149276592551826
 30
0.0
 10
14.70815027012807
 20
2.151201593910044
 30
0.0
 10
14.70404547234611
 20
2.152758601845319
 30
0.0
 10
14.69972680153088
 20
2.153833129342057
 30
0.0
 10
14.69519372217626
 20
2.154552373500147
 30
0.0
 10
14.69209754369173
 20
2.154618860732261
 30
0.0
 10
14.6905147898868
 20
2.154652848733969
 30
0.0
  0
SPLINE
  5
128
330
1F
100
AcDbEntity
  8
FORMAT
100
AcDbSpline
210
0.0
220
0.0
230
1.0
 70
     8
 71
     3
 72
    23
 73
    19
 74
     0
 42
0.000000001
 43
0.00000001
 40
0.0
 40
0.0
 40
0.0
 40
0.0
 40
0.0567970301348236
 40
0.1112715559999992
 40
0.1652817185238213
 40
0.2184245936874224
 40
0.2724835588108413
 40
0.3270714761222997
 40
0.3838428844986819
 40
0.4430572141260264
 40
0.5041341591361523
 40
0.5662342793027562
 40
0.6305781420774743
 40
0.6971980165923958
 40
0.7671171460832515
 40
0.8405912864508552
 40
0.9180806523463263
 40
0.9999999999999999
 40
0.9999999999999999
 40
0.9999999999999999
 40
0.9999999999999999
 10
14.6905147898868
 20
2.154652848733969
 30
0.0
 10
14.6886345236948
 20
2.154600597189113
 30
0.0
 10
14.68495087783547
 20
2.154498230732883
 30
0.0
 10
14.67955073590123
 20
2.153551049711361
 30
0.0
 10
14.67438189212929
 20
2.152149533785949
 30
0.0
 10
14.66944891744791
 20
2.150083276596002
 30
0.0
 10
14.66479462894932
 20
2.147413183787402
 30
0.0
 10
14.66040748848176
 20
2.144129546960492
 30
0.0
 10
14.65617771831363
 20
2.140379264984152
 30
0.0
 10
14.65232091348112
 20
2.135954176322122
 30
0.0
 10
14.64876957226926
 20
2.131068630998904
 30
0.0
 10
14.6456426257769
 20
2.125696026207604
 30
0.0
 10
14.64308748291107
 20
2.119830540303907
 30
0.0
 10
14.64097525826252
 20
2.113524190042791
 30
0.0
 10
14.6392694183895
 20
2.106782012397444
 30
0.0
 10
14.63810182269334
 20
2.099561404945161
 30
0.0
 10
14.63743772966942
 20
2.091880027092906
 30
0.0
 10
14.63733295565175
 20
2.086607279334836
 30
0.0
 10
14.63727911280346
 20
2.083897640400633
 30
0.0
  0
SPLINE
  5
129
330
1F
100
AcDbEntity
  8
FORMAT
100
AcDbSpline
210
0.0
220
0.0
230
1.0
 70
     8
 71
     3
 72
    23
 73
    19
 74
     0
 42
0.000000001
 43
0.00000001
 40
0.0
 40
0.0
 40
0.0
 40
0.0
 40
0.0804289345753965
 40
0.1566969594922797
 40
0.2295405289554988
 40
0.2994312296675853
 40
0.366426208348847
 40
0.4315058536044371
 40
0.4952617282075135
 40
0.5583226600744904
 40
0.619425086006212
 40
0.6775836006024722
 40
0.7330489449408297
 40
0.7868886658394495
 40
0.8396741606440858
 40
0.8925407540363177
 40
0.9457074877166606
 40
1.0
 40
1.0
 40
1.0
 40
1.0
 10
14.63727911280346
 20
2.083897640400633
 30
0.0
 10
14.63730902609449
 20
2.081384670842861
 30
0.0
 10
14.63736730514266
 20
2.076488737668083
 30
0.0
 10
14.63813018693321
 20
2.069352180913697
 30
0.0
 10
14.63924279819751
 20
2.062599409404762
 30
0.0
 10
14.64084358091174
 20
2.056238841164606
 30
0.0
 10
14.64292317881619
 20
2.050275151095857
 30
0.0
 10
14.64546642342483
 20
2.044702759089612
 30
0.0
 10
14.64848258225556
 20
2.039512878973739
 30
0.0
 10
14.65193126179559
 20
2.03475066243303
 30
0.0
 10
14.65573711852264
 20
2.030504586383663
 30
0.0
 10
14.65970822933847
 20
2.026751679351257
 30
0.0
 10
14.66388000690579
 20
2.023576122922954
 30
0.0
 10
14.66826971760307
 20
2.021031869860245
 30
0.0
 10
14.67283570078344
 20
2.019014398460544
 30
0.0
 10
14.6775927494159
 20
2.01757034459273
 30
0.0
 10
14.68254170492093
 20
2.01670474094183
 30
0.0
 10
14.68589875711845
 20
2.016587223188208
 30
0.0
 10
14.6875948680118
 20
2.016527848733967
 30
0.0
  0
SPLINE
  5
12A
330
1F
100
AcDbEntity
  8
FORMAT
100
AcDbSpline
210
0.0
220
0.0
230
1.0
 70
     8
 71
     3
 72
    15
 73
    11
 74
     0
 42
0.000000001
 43
0.00000001
 40
0.0
 40
0.0
 40
0.0
 40
0.0
 40
0.190287063443078
 40
0.3513217956637573
 40
0.488311885167291
 40
0.6030489885832314
 40
0.7041243821147825
 40
0.8009461991830462
 40
0.8978464099625505
 40
1.0
 40
1.0
 40
1.0
 40
1.0
 10
14.48832077947013
 20
2.038067562275635
 30
0.0
 10
14.48837986065666
 20
2.036244581443679
 30
0.0
 10
14.48848894063385
 20
2.032878861842176
 30
0.0
 10
14.48920426850948
 20
2.028247935396069
 30
0.0
 10
14.49026864484359
 20
2.024420576046762
 30
0.0
 10
14.49190225215187
 20
2.02142251641132
 30
0.0
 10
14.49397279790106
 20
2.019216626781136
 30
0.0
 10
14.49635360543488
 20
2.017661300743411
 30
0.0
 10
14.49905182459152
 20
2.016671036910519
 30
0.0
 10
14.50096516377281
 20
2.016576410577831
 30
0.0
 10
14.50194708155347
 20
2.016527848733967
 30
0.0
  0
SPLINE
  5
12B
330
1F
100
AcDbEntity
  8
FORMAT
100
AcDbSpline
210
0.0
220
0.0
230
1.0
 70
     8
 71
     3
 72
    15
 73
    11
 74
     0
 42
0.000000001
 43
0.00000001
 40
0.0
 40
0.0
 40
0.0
 40
0.0
 40
0.0936710320255366
 40
0.1931368623324603
 40
0.2985720368400568
 40
0.4143570484657678
 40
0.5408661611387788
 40
0.6797322653007322
 40
0.8328276634625499
 40
1.0
 40
1.0
 40
1.0
 40
1.0
 10
14.50194708155347
 20
2.016527848733967
 30
0.0
 10
14.50302532648194
 20
2.016585378940134
 30
0.0
 10
14.50524852011831
 20
2.016703998360335
 30
0.0
 10
14.50856320711615
 20
2.017699902995899
 30
0.0
 10
14.51190470258924
 20
2.019268161644695
 30
0.0
 10
14.51530607207966
 20
2.021390449105715
 30
0.0
 10
14.51868335500293
 20
2.02419477871986
 30
0.0
 10
14.52212587417021
 20
2.027559298126089
 30
0.0
 10
14.52558689378649
 20
2.031551337788438
 30
0.0
 10
14.52779381679609
 20
2.034498146440327
 30
0.0
 10
14.52894577947013
 20
2.036036312275633
 30
0.0
  0
SPLINE
  5
12C
330
1F
100
AcDbEntity
  8
FORMAT
100
AcDbSpline
210
0.0
220
0.0
230
1.0
 70
     8
 71
     3
 72
    11
 73
     7
 74
     0
 42
0.000000001
 43
0.00000001
 40
0.0
 40
0.0
 40
0.0
 40
0.0
 40
0.3569455761112856
 40
0.6383787666868972
 40
0.8553153651894809
 40
0.9999999999999999
 40
0.9999999999999999
 40
0.9999999999999999
 40
0.9999999999999999
 10
14.52894577947013
 20
2.043611182067301
 30
0.0
 10
14.52783990932723
 20
2.042375715783623
 30
0.0
 10
14.52586211757078
 20
2.040166148008476
 30
0.0
 10
14.52310299328141
 20
2.037311816658946
 30
0.0
 10
14.52102620749577
 20
2.035156425560087
 30
0.0
 10
14.51970071736915
 20
2.034122508481456
 30
0.0
 10
14.51917038884513
 20
2.033708838317299
 30
0.0
  0
SPLINE
  5
12D
330
1F
100
AcDbEntity
  8
FORMAT
100
AcDbSpline
210
0.0
220
0.0
230
1.0
 70
     8
 71
     3
 72
     9
 73
     5
 74
     0
 42
0.000000001
 43
0.00000001
 40
0.0
 40
0.0
 40
0.0
 40
0.0
 40
0.4814560089181241
 40
1.0
 40
1.0
 40
1.0
 40
1.0
 10
14.51917038884513
 20
2.033708838317299
 30
0.0
 10
14.51865840111777
 20
2.033447729790465
 30
0.0
 10
14.5175949857322
 20
2.032905398773719
 30
0.0
 10
14.51640304558139
 20
2.03282140381506
 30
0.0
 10
14.51578497217846
 20
2.032777848733966
 30
0.0
  0
SPLINE
  5
12E
330
1F
100
AcDbEntity
  8
FORMAT
100
AcDbSpline
210
0.0
220
0.0
230
1.0
 70
     8
 71
     3
 72
    21
 73
    17
 74
     0
 42
0.000000001
 43
0.00000001
 40
0.0
 40
0.0
 40
0.0
 40
0.0
 40
0.0522492480111637
 40
0.1081039668527556
 40
0.1420367362094095
 40
0.1837030461602934
 40
0.2337779167489705
 40
0.293510488859045
 40
0.3332005762112742
 40
0.3868605622567718
 40
0.4545103879580409
 40
0.5360801451544646
 40
0.6304181021515429
 40
0.7400214946732622
 40
0.862367834507173
 40
1.0
 40
1.0
 40
1.0
 40
1.0
 10
14.51578497217846
 20
2.032777848733966
 30
0.0
 10
14.51520843875323
 20
2.032863019982616
 30
0.0
 10
14.51401558808717
 20
2.033039239740628
 30
0.0
 10
14.51265581127791
 20
2.033975776882567
 30
0.0
 10
14.51186225098713
 20
2.035206973507877
 30
0.0
 10
14.51131088765342
 20
2.036492122133997
 30
0.0
 10
14.51093571408743
 20
2.038129437388122
 30
0.0
 10
14.51057276063933
 20
2.039746697502288
 30
0.0
 10
14.5104390986272
 20
2.041438328237921
 30
0.0
 10
14.51031421498505
 20
2.04321509551424
 30
0.0
 10
14.51016472055652
 20
2.045456995466758
 30
0.0
 10
14.51017629728872
 20
2.048154086920988
 30
0.0
 10
14.51004665093003
 20
2.051312201720005
 30
0.0
 10
14.51003680597767
 20
2.054924254596038
 30
0.0
 10
14.50997265815021
 20
2.059014644350485
 30
0.0
 10
14.50998232730381
 20
2.061892393961972
 30
0.0
 10
14.5099874461368
 20
2.063415869567301
 30
0.0
  0
SPLINE
  5
12F
330
1F
100
AcDbEntity
  8
FORMAT
100
AcDbSpline
210
0.0
220
0.0
230
1.0
 70
     8
 71
     3
 72
    15
 73
    11
 74
     0
 42
0.000000001
 43
0.00000001
 40
0.0
 40
0.0
 40
0.0
 40
0.0
 40
0.1798765792392237
 40
0.3434266856175013
 40
0.4924519677828272
 40
0.6235211396417256
 40
0.7403531534564481
 40
0.8427965147928627
 40
0.9281081074689291
 40
1.0
 40
1.0
 40
1.0
 40
1.0
 10
14.5099874461368
 20
2.108822770608968
 30
0.0
 10
14.50997365301766
 20
2.110374308404699
 30
0.0
 10
14.50994731870994
 20
2.11333655888251
 30
0.0
 10
14.50990465227486
 20
2.117585985743122
 30
0.0
 10
14.50964380477412
 20
2.121404745767518
 30
0.0
 10
14.50948880681964
 20
2.12482684804722
 30
0.0
 10
14.50911978829397
 20
2.12782825300513
 30
0.0
 10
14.50877030081547
 20
2.130432045210264
 30
0.0
 10
14.50832034612774
 20
2.132631106427265
 30
0.0
 10
14.50789624069144
 20
2.133920127687915
 30
0.0
 10
14.5077022898868
 20
2.1345096195673
 30
0.0
  0
SPLINE
  5
130
330
1F
100
AcDbEntity
  8
FORMAT
100
AcDbSpline
210
0.0
220
0.0
230
1.0
 70
     8
 71
     3
 72
    11
 73
     7
 74
     0
 42
0.000000001
 43
0.00000001
 40
0.0
 40
0.0
 40
0.0
 40
0.0
 40
0.2689417451290922
 40
0.52154675727337
 40
0.7619289549210619
 40
1.0
 40
1.0
 40
1.0
 40
1.0
 10
14.5077022898868
 20
2.1345096195673
 30
0.0
 10
14.50706906518448
 20
2.136026766569048
 30
0.0
 10
14.50584108070047
 20
2.138968902230021
 30
0.0
 10
14.50332423277087
 20
2.142905766355702
 30
0.0
 10
14.5002905365017
 20
2.146229039531971
 30
0.0
 10
14.49786451790757
 20
2.147869689451699
 30
0.0
 10
14.4966573680118
 20
2.148686051858967
 30
0.0
  0
SPLINE
  5
131
330
1F
100
AcDbEntity
  8
FORMAT
100
AcDbSpline
210
0.0
220
0.0
230
1.0
 70
     8
 71
     3
 72
    11
 73
     7
 74
     0
 42
0.000000001
 43
0.00000001
 40
0.0
 40
0.0
 40
0.0
 40
0.0
 40
0.2237699381809833
 40
0.46218081017121
 40
0.7189772093688797
 40
0.9999999999999999
 40
0.9999999999999999
 40
0.9999999999999999
 40
0.9999999999999999
 10
14.4966573680118
 20
2.148686051858967
 30
0.0
 10
14.49492065210607
 20
2.149622298398266
 30
0.0
 10
14.49133358955929
 20
2.151556048693639
 30
0.0
 10
14.4852254675313
 20
2.153336241941328
 30
0.0
 10
14.47847457268063
 20
2.154453488377265
 30
0.0
 10
14.47374043690667
 20
2.154584429179134
 30
0.0
 10
14.4712667430118
 20
2.154652848733968
 30
0.0
  0
SPLINE
  5
132
330
1F
100
AcDbEntity
  8
FORMAT
100
AcDbSpline
210
0.0
220
0.0
230
1.0
 70
     8
 71
     3
 72
    23
 73
    19
 74
     0
 42
0.000000001
 43
0.00000001
 40
0.0
 40
0.0
 40
0.0
 40
0.0
 40
0.0827462702870901
 40
0.160847739117457
 40
0.2355159429169691
 40
0.306420548285537
 40
0.3743414680101516
 40
0.4403382563111903
 40
0.5048040582065748
 40
0.5681565147089005
 40
0.6296650765359111
 40
0.6878139294714436
 40
0.744002516869858
 40
0.7973229442053208
 40
0.8487165097384837
 40
0.899247429782507
 40
0.9493033961330388
 40
1.0
 40
1.0
 40
1.0
 40
1.0
 10
14.4712667430118
 20
2.154652848733968
 30
0.0
 10
14.46962947764735
 20
2.154618156975192
 30
0.0
 10
14.4664468516354
 20
2.154550720812262
 30
0.0
 10
14.46180307438168
 20
2.154091271123479
 30
0.0
 10
14.45744812884063
 20
2.153282450744034
 30
0.0
 10
14.45335652526044
 20
2.152204999316789
 30
0.0
 10
14.44957076170714
 20
2.150740588564254
 30
0.0
 10
14.44603393296989
 20
2.149023630525054
 30
0.0
 10
14.44280351280625
 20
2.146937386769702
 30
0.0
 10
14.43990578284692
 20
2.144555827022479
 30
0.0
 10
14.43728555956304
 20
2.142048572817326
 30
0.0
 10
14.43503578445838
 20
2.139389145924031
 30
0.0
 10
14.43307263910693
 20
2.136708071326459
 30
0.0
 10
14.43150735492552
 20
2.133930194569934
 30
0.0
 10
14.43023614386665
 20
2.13112377366161
 30
0.0
 10
14.42942636507273
 20
2.12822215758115
 30
0.0
 10
14.42881704318274
 20
2.125281351284612
 30
0.0
 10
14.4287640907186
 20
2.123284550568485
 30
0.0
 10
14.4287374461368
 20
2.122279801858967
 30
0.0
  0
SPLINE
  5
133
330
1F
100
AcDbEntity
  8
FORMAT
100
AcDbSpline
210
0.0
220
0.0
230
1.0
 70
     8
 71
     3
 72
    15
 73
    11
 74
     0
 42
0.000000001
 43
0.00000001
 40
0.0
 40
0.0
 40
0.0
 40
0.0
 40
0.1541874635230774
 40
0.2941172238102248
 40
0.4245710653586021
 40
0.5466476072564521
 40
0.6631677966120466
 40
0.7721193128403666
 40
0.8845743018028266
 40
1.0
 40
1.0
 40
1.0
 40
1.0
 10
14.4287374461368
 20
2.122279801858967
 30
0.0
 10
14.42875696935239
 20
2.121274001784959
 30
0.0
 10
14.42879421047329
 20
2.119355407894663
 30
0.0
 10
14.429429436561
 20
2.11665329229889
 30
0.0
 10
14.43031767493306
 20
2.11424357868605
 30
0.0
 10
14.43166507081744
 20
2.11223660319735
 30
0.0
 10
14.43324916355089
 20
2.110592052623453
 30
0.0
 10
14.4351621211277
 20
2.109476740985717
 30
0.0
 10
14.43724133552244
 20
2.108703468785574
 30
0.0
 10
14.43873139959469
 20
2.108642210499469
 30
0.0
 10
14.43948614405347
 20
2.1086111820673
 30
0.0
  0
SPLINE
  5
134
330
1F
100
AcDbEntity
  8
FORMAT
100
AcDbSpline
210
0.0
220
0.0
230
1.0
 70
     8
 71
     3
 72
    15
 73
    11
 74
     0
 42
0.000000001
 43
0.00000001
 40
0.0
 40
0.0
 40
0.0
 40
0.0
 40
0.1184794332843293
 40
0.2311038760248296
 40
0.3407465540905121
 40
0.4545296941036402
 40
0.5735323890651418
 40
0.7026089345634032
 40
0.8431563634287699
 40
1.0
 40
1.0
 40
1.0
 40
1.0
 10
14.43948614405347
 20
2.1086111820673
 30
0.0
 10
14.44026770233001
 20
2.108645275009247
 30
0.0
 10
14.44179219600829
 20
2.108711776095643
 30
0.0
 10
14.44394346101399
 20
2.109423040562377
 30
0.0
 10
14.44587203182677
 20
2.11054017646258
 30
0.0
 10
14.44747580057325
 20
2.11214757066596
 30
0.0
 10
14.44883355914239
 20
2.114124665658525
 30
0.0
 10
14.44971745767784
 20
2.116539766606151
 30
0.0
 10
14.45034942272116
 20
2.119285231922344
 30
0.0
 10
14.45038522875221
 20
2.121245800632837
 30
0.0
 10
14.45040411280347
 20
2.122279801858967
 30
0.0
  0
SPLINE
  5
135
330
1F
100
AcDbEntity
  8
FORMAT
100
AcDbSpline
210
0.0
220
0.0
230
1.0
 70
     8
 71
     3
 72
    11
 73
     7
 74
     0
 42
0.000000001
 43
0.00000001
 40
0.0
 40
0.0
 40
0.0
 40
0.0
 40
0.2479148780171087
 40
0.49181776907319
 40
0.7371610440546542
 40
1.0
 40
1.0
 40
1.0
 40
1.0
 10
14.45015020655347
 20
2.1305740726923
 30
0.0
 10
14.45020460100243
 20
2.131597104622923
 30
0.0
 10
14.45031250963926
 20
2.133626612838941
 30
0.0
 10
14.45125902436851
 20
2.136537465824973
 30
0.0
 10
14.45270670613747
 20
2.139301735673845
 30
0.0
 10
14.45411769105089
 20
2.140856939242769
 30
0.0
 10
14.45484747217847
 20
2.141661312275636
 30
0.0
  0
SPLINE
  5
136
330
1F
100
AcDbEntity
  8
FORMAT
100
AcDbSpline
210
0.0
220
0.0
230
1.0
 70
     8
 71
     3
 72
    11
 73
     7
 74
     0
 42
0.000000001
 43
0.00000001
 40
0.0
 40
0.0
 40
0.0
 40
0.0
 40
0.2390719996792192
 40
0.4796581371587344
 40
0.7301873564238532
 40
1.0
 40
1.0
 40
1.0
 40
1.0
 10
14.45484747217847
 20
2.141661312275636
 30
0.0
 10
14.45564887058442
 20
2.142409108496693
 30
0.0
 10
14.4572567429703
 20
2.143909437028885
 30
0.0
 10
14.46027155040638
 20
2.145412077162716
 30
0.0
 10
14.46363048138236
 20
2.146390579070946
 30
0.0
 10
14.46601178458764
 20
2.146480975508083
 30
0.0
 10
14.46724656072013
 20
2.146527848733967
 30
0.0
  0
SPLINE
  5
137
330
1F
100
AcDbEntity
  8
FORMAT
100
AcDbSpline
210
0.0
220
0.0
230
1.0
 70
     8
 71
     3
 72
    19
 73
    15
 74
     0
 42
0.000000001
 43
0.00000001
 40
0.0
 40
0.0
 40
0.0
 40
0.0
 40
0.1083418015623626
 40
0.2074596368682512
 40
0.301796075129712
 40
0.3982047465400963
 40
0.4501974486095022
 40
0.5077926448454295
 40
0.5709687819257924
 40
0.6412312960447053
 40
0.71905352745382
 40
0.8047836897652648
 40
0.8986820602285962
 40
1.0
 40
1.0
 40
1.0
 40
1.0
 10
14.46724656072013
 20
2.146527848733967
 30
0.0
 10
14.46886428346707
 20
2.146458322745612
 30
0.0
 10
14.47196199984979
 20
2.146325190048085
 30
0.0
 10
14.47631389835721
 20
2.144986841810234
 30
0.0
 10
14.48003541029198
 20
2.142715019194601
 30
0.0
 10
14.48258349164401
 20
2.140089578169155
 30
0.0
 10
14.48426692899687
 20
2.137512669818832
 30
0.0
 10
14.48534610299237
 20
2.135167567761648
 30
0.0
 10
14.48627971774904
 20
2.132474992956624
 30
0.0
 10
14.48702831027192
 20
2.12941349340359
 30
0.0
 10
14.48761198050949
 20
2.12597664890062
 30
0.0
 10
14.48802397230145
 20
2.122161150619406
 30
0.0
 10
14.48827675003936
 20
2.117980931365021
 30
0.0
 10
14.48830573577378
 20
2.115072065421434
 30
0.0
 10
14.48832077947013
 20
2.1135623539423
 30
0.0
  0
SPLINE
  5
138
330
1F
100
AcDbEntity
  8
FORMAT
100
AcDbSpline
210
0.0
220
0.0
230
1.0
 70
     8
 71
     3
 72
    19
 73
    15
 74
     0
 42
0.000000001
 43
0.00000001
 40
0.0
 40
0.0
 40
0.0
 40
0.0
 40
0.1055516465247949
 40
0.204405645868712
 40
0.295838085614875
 40
0.3801403644465445
 40
0.4575844951320912
 40
0.5274479343926761
 40
0.5900516293775939
 40
0.6462649345942706
 40
0.7464064553918022
 40
0.8380184818557244
 40
0.9221925965878751
 40
1.0
 40
1.0
 40
1.0
 40
1.0
 10
14.48832077947013
 20
2.1086111820673
 30
0.0
 10
14.48590519297695
 20
2.107589562743939
 30
0.0
 10
14.48122729799807
 20
2.105611149668458
 30
0.0
 10
14.47451355793872
 20
2.10261569306046
 30
0.0
 10
14.46833980979497
 20
2.099711798035183
 30
0.0
 10
14.46263706725999
 20
2.097052600036434
 30
0.0
 10
14.45754870630893
 20
2.094361272282782
 30
0.0
 10
14.45295959702177
 20
2.091882359708864
 30
0.0
 10
14.44891318490075
 20
2.089511336512575
 30
0.0
 10
14.44434954619916
 20
2.086546812227737
 30
0.0
 10
14.43940891232739
 20
2.08284870260148
 30
0.0
 10
14.43432221605751
 20
2.078240877549301
 30
0.0
 10
14.43015697608427
 20
2.073468547350177
 30
0.0
 10
14.42811177856185
 20
2.069993806511393
 30
0.0
 10
14.42712937322013
 20
2.068324723733967
 30
0.0
  0
SPLINE
  5
139
330
1F
100
AcDbEntity
  8
FORMAT
100
AcDbSpline
210
0.0
220
0.0
230
1.0
 70
     8
 71
     3
 72
    11
 73
     7
 74
     0
 42
0.000000001
 43
0.00000001
 40
0.0
 40
0.0
 40
0.0
 40
0.0
 40
0.2326550213905246
 40
0.4743855180796132
 40
0.7290618109236817
 40
1.0
 40
1.0
 40
1.0
 40
1.0
 10
14.42712937322013
 20
2.068324723733967
 30
0.0
 10
14.42654316783911
 20
2.067083236292512
 30
0.0
 10
14.42534789020566
 20
2.064551833103425
 30
0.0
 10
14.42420243503459
 20
2.060394261928535
 30
0.0
 10
14.4234616989377
 20
2.055924133758857
 30
0.0
 10
14.42336871159909
 20
2.052825579510489
 30
0.0
 10
14.42332077947013
 20
2.051228369567299
 30
0.0
  0
SPLINE
  5
13A
330
1F
100
AcDbEntity
  8
FORMAT
100
AcDbSpline
210
0.0
220
0.0
230
1.0
 70
     8
 71
     3
 72
    19
 73
    15
 74
     0
 42
0.000000001
 43
0.00000001
 40
0.0
 40
0.0
 40
0.0
 40
0.0
 40
0.1491677428404798
 40
0.2857738636750482
 40
0.4146409461733724
 40
0.5391730292085906
 40
0.5999803857155825
 40
0.6583855386392341
 40
0.7150307160889013
 40
0.770956397349052
 40
0.8262317578784159
 40
0.8827683155206614
 40
0.9403755804210284
 40
1.0
 40
1.0
 40
1.0
 40
1.0
 10
14.42332077947013
 20
2.051228369567299
 30
0.0
 10
14.42341652112344
 20
2.048752610392215
 30
0.0
 10
14.42359994189296
 20
2.044009579147519
 30
0.0
 10
14.42504077149566
 20
2.037243166880837
 30
0.0
 10
14.42750413543762
 20
2.031222846581898
 30
0.0
 10
14.4304011387414
 20
2.026844758610646
 30
0.0
 10
14.43311709553116
 20
2.02384120067893
 30
0.0
 10
14.4352860749381
 20
2.021885174627513
 30
0.0
 10
14.43757491712831
 20
2.020194497912656
 30
0.0
 10
14.44005514313531
 20
2.018914135495363
 30
0.0
 10
14.44261629705061
 20
2.017818184896474
 30
0.0
 10
14.44533093481096
 20
2.017055903192889
 30
0.0
 10
14.44819102009587
 20
2.016643741084791
 30
0.0
 10
14.45013486695251
 20
2.016566920125866
 30
0.0
 10
14.45112351384513
 20
2.016527848733967
 30
0.0
  0
SPLINE
  5
13B
330
1F
100
AcDbEntity
  8
FORMAT
100
AcDbSpline
210
0.0
220
0.0
230
1.0
 70
     8
 71
     3
 72
    11
 73
     7
 74
     0
 42
0.000000001
 43
0.00000001
 40
0.0
 40
0.0
 40
0.0
 40
0.0
 40
0.2508435672477726
 40
0.4997500895436691
 40
0.7471117083086346
 40
1.0
 40
1.0
 40
1.0
 40
1.0
 10
14.45112351384513
 20
2.016527848733967
 30
0.0
 10
14.45239648004348
 20
2.016563978369222
 30
0.0
 10
14.45493258243825
 20
2.016635958642234
 30
0.0
 10
14.45866283421305
 20
2.017355932447237
 30
0.0
 10
14.46231639108727
 20
2.018432526114995
 30
0.0
 10
14.46460732105111
 20
2.019528496830482
 30
0.0
 10
14.46576544092846
 20
2.020082536233968
 30
0.0
  0
SPLINE
  5
13C
330
1F
100
AcDbEntity
  8
FORMAT
100
AcDbSpline
210
0.0
220
0.0
230
1.0
 70
     8
 71
     3
 72
    15
 73
    11
 74
     0
 42
0.000000001
 43
0.00000001
 40
0.0
 40
0.0
 40
0.0
 40
0.0
 40
0.0545391053921856
 40
0.1293365889607035
 40
0.2245934968438124
 40
0.3383461798440431
 40
0.4738387184829621
 40
0.6288278045781044
 40
0.8046439627591438
 40
1.0
 40
1.0
 40
1.0
 40
1.0
 10
14.46576544092846
 20
2.020082536233968
 30
0.0
 10
14.46622066854847
 20
2.0203444739385
 30
0.0
 10
14.46730021664791
 20
2.020965645279341
 30
0.0
 10
14.46906239270314
 20
2.022222275144856
 30
0.0
 10
14.47124676045175
 20
2.023861835966129
 30
0.0
 10
14.47384326593528
 20
2.025924971028753
 30
0.0
 10
14.47688560576693
 20
2.02835089000252
 30
0.0
 10
14.480298068142
 20
2.031267083734202
 30
0.0
 10
14.4842052166633
 20
2.034489732900895
 30
0.0
 10
14.4869016091718
 20
2.036833818698039
 30
0.0
 10
14.48832077947013
 20
2.038067562275635
 30
0.0
  0
SPLINE
  5
13D
330
1F
100
AcDbEntity
  8
FORMAT
100
AcDbSpline
210
0.0
220
0.0
230
1.0
 70
     8
 71
     3
 72
    11
 73
     7
 74
     0
 42
0.000000001
 43
0.00000001
 40
0.0
 40
0.0
 40
0.0
 40
0.0
 40
0.3693700746579017
 40
0.6059459157712325
 40
0.7830073395846129
 40
1.0
 40
1.0
 40
1.0
 40
1.0
 10
14.61019577947013
 20
2.154652848733969
 30
0.0
 10
14.60973132993945
 20
2.153697685437602
 30
0.0
 10
14.60896940764116
 20
2.152130754768235
 30
0.0
 10
14.60767961581136
 20
2.150210991184762
 30
0.0
 10
14.60600485193167
 20
2.149337900419106
 30
0.0
 10
14.60485962274707
 20
2.149272303912258
 30
0.0
 10
14.60422898259513
 20
2.1492361820673
 30
0.0
  0
SPLINE
  5
13E
330
1F
100
AcDbEntity
  8
FORMAT
100
AcDbSpline
210
0.0
220
0.0
230
1.0
 70
     8
 71
     3
 72
    11
 73
     7
 74
     0
 42
0.000000001
 43
0.00000001
 40
0.0
 40
0.0
 40
0.0
 40
0.0
 40
0.1497215452238473
 40
0.3690116413530411
 40
0.6492892640529512
 40
1.0
 40
1.0
 40
1.0
 40
1.0
 10
14.60422898259513
 20
2.1492361820673
 30
0.0
 10
14.60377603493577
 20
2.149267830700065
 30
0.0
 10
14.60265967617139
 20
2.149345833594742
 30
0.0
 10
14.60074538468705
 20
2.149825186165768
 30
0.0
 10
14.59826508852341
 20
2.150507261282879
 30
0.0
 10
14.59644083871654
 20
2.151077461319331
 30
0.0
 10
14.5954268992618
 20
2.1513943851923
 30
0.0
  0
SPLINE
  5
13F
330
1F
100
AcDbEntity
  8
FORMAT
100
AcDbSpline
210
0.0
220
0.0
230
1.0
 70
     8
 71
     3
 72
    11
 73
     7
 74
     0
 42
0.000000001
 43
0.00000001
 40
0.0
 40
0.0
 40
0.0
 40
0.0
 40
0.2879056585984441
 40
0.5506905015962495
 40
0.7873879400821803
 40
1.0
 40
1.0
 40
1.0
 40
1.0
 10
14.5954268992618
 20
2.1513943851923
 30
0.0
 10
14.5938393679145
 20
2.15189716072804
 30
0.0
 10
14.59080282310257
 20
2.152858842805822
 30
0.0
 10
14.5863601150198
 20
2.153870182275207
 30
0.0
 10
14.58228412855752
 20
2.154502162550225
 30
0.0
 10
14.57968662839175
 20
2.154604447681721
 30
0.0
 10
14.57845749822013
 20
2.154652848733969
 30
0.0
  0
SPLINE
  5
140
330
1F
100
AcDbEntity
  8
FORMAT
100
AcDbSpline
210
0.0
220
0.0
230
1.0
 70
     8
 71
     3
 72
    23
 73
    19
 74
     0
 42
0.000000001
 43
0.00000001
 40
0.0
 40
0.0
 40
0.0
 40
0.0
 40
0.0667715730459831
 40
0.1304519092010575
 40
0.1923571841335817
 40
0.2531310476074092
 40
0.3134533773370803
 40
0.3734041394872663
 40
0.4343292088263334
 40
0.4963702224991812
 40
0.5591316142985406
 40
0.6200782538522475
 40
0.681072321026947
 40
0.7421051652058506
 40
0.804480019117332
 40
0.867479706483795
 40
0.932504011029936
 40
1.0
 40
1.0
 40
1.0
 40
1.0
 10
14.57845749822013
 20
2.154652848733969
 30
0.0
 10
14.57715796912213
 20
2.154622236279718
 30
0.0
 10
14.57461907353884
 20
2.154562428596293
 30
0.0
 10
14.57090551529991
 20
2.154038422294164
 30
0.0
 10
14.56737343393547
 20
2.153197044546552
 30
0.0
 10
14.56401201844602
 20
2.152004537534366
 30
0.0
 10
14.5608256128808
 20
2.150485945940969
 30
0.0
 10
14.55784172412958
 20
2.148596246967511
 30
0.0
 10
14.55503453246044
 20
2.146397586259434
 30
0.0
 10
14.5524700915205
 20
2.143842602132024
 30
0.0
 10
14.5501264152423
 20
2.141088591756732
 30
0.0
 10
14.54804789656659
 20
2.138146273150229
 30
0.0
 10
14.54639290836684
 20
2.134988795464745
 30
0.0
 10
14.54490484667074
 20
2.131719874728221
 30
0.0
 10
14.54382371855136
 20
2.128248573126394
 30
0.0
 10
14.54306664033913
 20
2.124619436276758
 30
0.0
 10
14.54258890214617
 20
2.12083949968004
 30
0.0
 10
14.54252168271796
 20
2.118261044204451
 30
0.0
 10
14.5424874461368
 20
2.116947770608967
 30
0.0
  0
SPLINE
  5
141
330
1F
100
AcDbEntity
  8
FORMAT
100
AcDbSpline
210
0.0
220
0.0
230
1.0
 70
     8
 71
     3
 72
    11
 73
     7
 74
     0
 42
0.000000001
 43
0.00000001
 40
0.0
 40
0.0
 40
0.0
 40
0.0
 40
0.2750723683469376
 40
0.5293629600365212
 40
0.7688552807451414
 40
1.0
 40
1.0
 40
1.0
 40
1.0
 10
14.5424874461368
 20
2.116947770608967
 30
0.0
 10
14.54253542006842
 20
2.114965429523723
 30
0.0
 10
14.5426277434908
 20
2.111150513649063
 30
0.0
 10
14.54380870225103
 20
2.105730933851444
 30
0.0
 10
14.5454470576623
 20
2.100744552021568
 30
0.0
 10
14.54726511409912
 20
2.097875219586085
 30
0.0
 10
14.54815801905347
 20
2.096465999775634
 30
0.0
  0
SPLINE
  5
142
330
1F
100
AcDbEntity
  8
FORMAT
100
AcDbSpline
210
0.0
220
0.0
230
1.0
 70
     8
 71
     3
 72
    27
 73
    23
 74
     0
 42
0.000000001
 43
0.00000001
 40
0.0
 40
0.0
 40
0.0
 40
0.0
 40
0.0336350532337892
 40
0.0712548535049921
 40
0.1134739156644029
 40
0.1593116838408684
 40
0.2097606186689825
 40
0.2652743260788932
 40
0.3250155819092069
 40
0.3896740936935746
 40
0.4540612795317249
 40
0.5136916180301667
 40
0.568315723585181
 40
0.6182664574807073
 40
0.6632914405575526
 40
0.7034459409331739
 40
0.738766443595945
 40
0.769836859199508
 40
0.8261478136749743
 40
0.8819549038275318
 40
0.9390519744834152
 40
1.0
 40
1.0
 40
1.0
 40
1.0
 10
14.54815801905347
 20
2.096465999775634
 30
0.0
 10
14.54868233945292
 20
2.095765260617258
 30
0.0
 10
14.54979309652512
 20
2.094280765684895
 30
0.0
 10
14.55181293079395
 20
2.092121456856751
 30
0.0
 10
14.55421984751653
 20
2.08990897476285
 30
0.0
 10
14.55698598282202
 20
2.087598663554949
 30
0.0
 10
14.56018383907204
 20
2.085279847743536
 30
0.0
 10
14.5637744107174
 20
2.082897293781333
 30
0.0
 10
14.56771199285566
 20
2.080368104585481
 30
0.0
 10
14.57197400947557
 20
2.077929187552982
 30
0.0
 10
14.57624956070221
 20
2.075521761420931
 30
0.0
 10
14.58021359940813
 20
2.073098256489224
 30
0.0
 10
14.58382980659658
 20
2.070826538215493
 30
0.0
 10
14.58703920198016
 20
2.068625535751631
 30
0.0
 10
14.58987518388882
 20
2.066551245944271
 30
0.0
 10
14.59235609247246
 20
2.064631978060883
 30
0.0
 10
14.59438374389964
 20
2.062741191715015
 30
0.0
 10
14.59664681080202
 20
2.060487826472233
 30
0.0
 10
14.5988343087702
 20
2.057440468442719
 30
0.0
 10
14.60073539041255
 20
2.053448461508533
 30
0.0
 10
14.60186144237918
 20
2.04903191436859
 30
0.0
 10
14.60199949917601
 20
2.045959317513801
 30
0.0
 10
14.60207077947013
 20
2.044372900817301
 30
0.0
  0
SPLINE
  5
143
330
1F
100
AcDbEntity
  8
FORMAT
100
AcDbSpline
210
0.0
220
0.0
230
1.0
 70
     8
 71
     3
 72
    15
 73
    11
 74
     0
 42
0.000000001
 43
0.00000001
 40
0.0
 40
0.0
 40
0.0
 40
0.0
 40
0.1253568139476136
 40
0.2456326395762425
 40
0.3657884443935094
 40
0.489952630291321
 40
0.6139278405581379
 40
0.7370856871013465
 40
0.8638232740493884
 40
1.0
 40
1.0
 40
1.0
 40
1.0
 10
14.60207077947013
 20
2.044372900817301
 30
0.0
 10
14.60201238189371
 20
2.043053592775338
 30
0.0
 10
14.6018979537235
 20
2.040468451157935
 30
0.0
 10
14.60079357323109
 20
2.036746685168855
 30
0.0
 10
14.59897220711785
 20
2.033355590819258
 30
0.0
 10
14.59653852372884
 20
2.03031687685054
 30
0.0
 10
14.5935187541569
 20
2.0278076225504
 30
0.0
 10
14.59003236552184
 20
2.025937513618361
 30
0.0
 10
14.58607908747156
 20
2.02487289407618
 30
0.0
 10
14.58331624800412
 20
2.024727931989031
 30
0.0
 10
14.58188523259513
 20
2.024652848733966
 30
0.0
  0
SPLINE
  5
144
330
1F
100
AcDbEntity
  8
FORMAT
100
AcDbSpline
210
0.0
220
0.0
230
1.0
 70
     8
 71
     3
 72
    19
 73
    15
 74
     0
 42
0.000000001
 43
0.00000001
 40
0.0
 40
0.0
 40
0.0
 40
0.0
 40
0.112113265845704
 40
0.221799892850188
 40
0.3346802207740264
 40
0.4523240520516065
 40
0.5139900839183627
 40
0.5763776562528419
 40
0.6400415598528431
 40
0.7061665882341636
 40
0.7749286274568469
 40
0.8460988158478264
 40
0.9213407057025098
 40
1.0
 40
1.0
 40
1.0
 40
1.0
 10
14.58188523259513
 20
2.024652848733966
 30
0.0
 10
14.57981441998531
 20
2.024755147120378
 30
0.0
 10
14.57571761652938
 20
2.024957529692804
 30
0.0
 10
14.56973693838359
 20
2.026699403602865
 30
0.0
 10
14.56411682840267
 20
2.029543679283164
 30
0.0
 10
14.55974221421109
 20
2.032739686510938
 30
0.0
 10
14.55652922272157
 20
2.035838303237392
 30
0.0
 10
14.55428138732106
 20
2.038477519592
 30
0.0
 10
14.55222744955914
 20
2.04137338640555
 30
0.0
 10
14.55043219239525
 20
2.044569041140776
 30
0.0
 10
14.54875631393998
 20
2.047984499664024
 30
0.0
 10
14.5473832970802
 20
2.051712326803347
 30
0.0
 10
14.54613800378616
 20
2.055675123130228
 30
0.0
 10
14.54551446947396
 20
2.058445324806975
 30
0.0
 10
14.54519577947013
 20
2.059861182067301
 30
0.0
  0
SPLINE
  5
145
330
1F
100
AcDbEntity
  8
FORMAT
100
AcDbSpline
210
0.0
220
0.0
230
1.0
 70
     8
 71
     3
 72
    11
 73
     7
 74
     0
 42
0.000000001
 43
0.00000001
 40
0.0
 40
0.0
 40
0.0
 40
0.0
 40
0.3352398725406781
 40
0.6010597848858783
 40
0.810802220412773
 40
1.0
 40
1.0
 40
1.0
 40
1.0
 10
14.54519577947013
 20
2.016527848733967
 30
0.0
 10
14.54547364301215
 20
2.017334005950061
 30
0.0
 10
14.54597183136763
 20
2.018779384983342
 30
0.0
 10
14.54706621771592
 20
2.020518043388798
 30
0.0
 10
14.54834431419451
 20
2.021729025338939
 30
0.0
 10
14.54936613017715
 20
2.021875194524303
 30
0.0
 10
14.5498507273868
 20
2.021944515400632
 30
0.0
  0
SPLINE
  5
146
330
1F
100
AcDbEntity
  8
FORMAT
100
AcDbSpline
210
0.0
220
0.0
230
1.0
 70
     8
 71
     3
 72
     9
 73
     5
 74
     0
 42
0.000000001
 43
0.00000001
 40
0.0
 40
0.0
 40
0.0
 40
0.0
 40
0.4383027442863173
 40
1.0
 40
1.0
 40
1.0
 40
1.0
 10
14.5498507273868
 20
2.021944515400632
 30
0.0
 10
14.55088661318242
 20
2.021864830842057
 30
0.0
 10
14.55325001566876
 20
2.021683028287506
 30
0.0
 10
14.55551730266805
 20
2.020983353911093
 30
0.0
 10
14.55679083155346
 20
2.020590348733968
 30
0.0
  0
SPLINE
  5
147
330
1F
100
AcDbEntity
  8
FORMAT
100
AcDbSpline
210
0.0
220
0.0
230
1.0
 70
     8
 71
     3
 72
    11
 73
     7
 74
     0
 42
0.000000001
 43
0.00000001
 40
0.0
 40
0.0
 40
0.0
 40
0.0
 40
0.2781808634212402
 40
0.5370741537163182
 40
0.7761121211362129
 40
0.9999999999999999
 40
0.9999999999999999
 40
0.9999999999999999
 40
0.9999999999999999
 10
14.55679083155346
 20
2.020590348733968
 30
0.0
 10
14.55904063978889
 20
2.019968141271204
 30
0.0
 10
14.56338426659054
 20
2.018766866883059
 30
0.0
 10
14.5697764474913
 20
2.017511832669332
 30
0.0
 10
14.57578398698892
 20
2.016686438022023
 30
0.0
 10
14.57966816183928
 20
2.016579545748766
 30
0.0
 10
14.58154669092847
 20
2.016527848733967
 30
0.0
  0
SPLINE
  5
148
330
1F
100
AcDbEntity
  8
FORMAT
100
AcDbSpline
210
0.0
220
0.0
230
1.0
 70
     8
 71
     3
 72
    23
 73
    19
 74
     0
 42
0.000000001
 43
0.00000001
 40
0.0
 40
0.0
 40
0.0
 40
0.0
 40
0.0598943040186148
 40
0.118933486480341
 40
0.1776428823933022
 40
0.2365566495621205
 40
0.2955840856598758
 40
0.3568104275512568
 40
0.4188617573478514
 40
0.483109233752865
 40
0.5480153087446937
 40
0.6108771241270028
 40
0.6732998441788686
 40
0.7359443415282936
 40
0.7989714042496047
 40
0.8632872003633971
 40
0.9305953574952835
 40
1.0
 40
1.0
 40
1.0
 40
1.0
 10
14.58154669092847
 20
2.016527848733967
 30
0.0
 10
14.58278975818124
 20
2.016559845442829
 30
0.0
 10
14.58525814519606
 20
2.016623382037892
 30
0.0
 10
14.58891412613953
 20
2.017149871537584
 30
0.0
 10
14.59248463191162
 20
2.017996215755421
 30
0.0
 10
14.59595940219164
 20
2.019180385673971
 30
0.0
 10
14.59934697314226
 20
2.020725768394259
 30
0.0
 10
14.60262028846473
 20
2.022630542201462
 30
0.0
 10
14.6058215410545
 20
2.024848829101284
 30
0.0
 10
14.60888722919623
 20
2.027371472235904
 30
0.0
 10
14.61175529127745
 20
2.030149434497712
 30
0.0
 10
14.61421188580752
 20
2.033245800644151
 30
0.0
 10
14.61637762287326
 20
2.036500253121944
 30
0.0
 10
14.61802885896064
 20
2.040045614554322
 30
0.0
 10
14.61943349960428
 20
2.043736725209341
 30
0.0
 10
14.62032621097682
 20
2.047683473411808
 30
0.0
 10
14.62095972191798
 20
2.051814315877718
 30
0.0
 10
14.62100574724279
 20
2.054653529566472
 30
0.0
 10
14.62102911280347
 20
2.056094906025635
 30
0.0
  0
SPLINE
  5
149
330
1F
100
AcDbEntity
  8
FORMAT
100
AcDbSpline
210
0.0
220
0.0
230
1.0
 70
     8
 71
     3
 72
    15
 73
    11
 74
     0
 42
0.000000001
 43
0.00000001
 40
0.0
 40
0.0
 40
0.0
 40
0.0
 40
0.1188466969425439
 40
0.2341183638472089
 40
0.3490170717147433
 40
0.4656869358827154
 40
0.5868223179154002
 40
0.714811086842678
 40
0.8522884087935874
 40
1.0
 40
1.0
 40
1.0
 40
1.0
 10
14.62102911280347
 20
2.056094906025635
 30
0.0
 10
14.6209671454595
 20
2.057978723273861
 30
0.0
 10
14.62084507481257
 20
2.061689690623295
 30
0.0
 10
14.61953525526581
 20
2.067087702998152
 30
0.0
 10
14.61755580236037
 20
2.072222066579939
 30
0.0
 10
14.61471508486071
 20
2.077056375956094
 30
0.0
 10
14.61105375660916
 20
2.081559168546256
 30
0.0
 10
14.60665763278097
 20
2.085832981733999
 30
0.0
 10
14.60140945100184
 20
2.089761671127249
 30
0.0
 10
14.59752398464363
 20
2.092059638110173
 30
0.0
 10
14.59551153467847
 20
2.093249853942301
 30
0.0
  0
SPLINE
  5
14A
330
1F
100
AcDbEntity
  8
FORMAT
100
AcDbSpline
210
0.0
220
0.0
230
1.0
 70
     8
 71
     3
 72
    11
 73
     7
 74
     0
 42
0.000000001
 43
0.00000001
 40
0.0
 40
0.0
 40
0.0
 40
0.0
 40
0.318824847833809
 40
0.5899816462558973
 40
0.815760331761754
 40
0.9999999999999999
 40
0.9999999999999999
 40
0.9999999999999999
 40
0.9999999999999999
 10
14.5771456492618
 20
2.103406103942302
 30
0.0
 10
14.57531317920235
 20
2.104438046745358
 30
0.0
 10
14.57192221482259
 20
2.10634764481441
 30
0.0
 10
14.5676158703636
 20
2.109557695010109
 30
0.0
 10
14.56418689887235
 20
2.112513538761082
 30
0.0
 10
14.56270438670987
 20
2.114784670812528
 30
0.0
 10
14.5620382273868
 20
2.115805192483968
 30
0.0
  0
SPLINE
  5
14B
330
1F
100
AcDbEntity
  8
FORMAT
100
AcDbSpline
210
0.0
220
0.0
230
1.0
 70
     8
 71
     3
 72
    11
 73
     7
 74
     0
 42
0.000000001
 43
0.00000001
 40
0.0
 40
0.0
 40
0.0
 40
0.0
 40
0.233735119806599
 40
0.4760445624275901
 40
0.7293991307126891
 40
1.0
 40
1.0
 40
1.0
 40
1.0
 10
14.5620382273868
 20
2.115805192483969
 30
0.0
 10
14.56152516237247
 20
2.116792906778184
 30
0.0
 10
14.56048021110266
 20
2.118804568608815
 30
0.0
 10
14.55951719851192
 20
2.122150070777473
 30
0.0
 10
14.55884201543102
 20
2.125736599567194
 30
0.0
 10
14.55877305914707
 20
2.128228940885541
 30
0.0
 10
14.5587374461368
 20
2.129516129983967
 30
0.0
  0
SPLINE
  5
14C
330
1F
100
AcDbEntity
  8
FORMAT
100
AcDbSpline
210
0.0
220
0.0
230
1.0
 70
     8
 71
     3
 72
    15
 73
    11
 74
     0
 42
0.000000001
 43
0.00000001
 40
0.0
 40
0.0
 40
0.0
 40
0.0
 40
0.1087921237660536
 40
0.2183376849227802
 40
0.334398366836669
 40
0.4586985536092421
 40
0.5888180003196466
 40
0.7175923578096433
 40
0.85336829430843
 40
1.0
 40
1.0
 40
1.0
 40
1.0
 10
14.5587374461368
 20
2.129516129983966
 30
0.0
 10
14.55880286288246
 20
2.130567930690795
 30
0.0
 10
14.55893414941597
 20
2.132678816326442
 30
0.0
 10
14.56001298509332
 20
2.135764392776871
 30
0.0
 10
14.56179735900854
 20
2.138650478432641
 30
0.0
 10
14.56415799156486
 20
2.141357763628446
 30
0.0
 10
14.56707614922881
 20
2.143671430625228
 30
0.0
 10
14.57051788748565
 20
2.145366750759855
 30
0.0
 10
14.57439840919373
 20
2.146341406239008
 30
0.0
 10
14.57712594328968
 20
2.146464128748413
 30
0.0
 10
14.5785421336368
 20
2.146527848733967
 30
0.0
  0
SPLINE
  5
14D
330
1F
100
AcDbEntity
  8
FORMAT
100
AcDbSpline
210
0.0
220
0.0
230
1.0
 70
     8
 71
     3
 72
    19
 73
    15
 74
     0
 42
0.000000001
 43
0.00000001
 40
0.0
 40
0.0
 40
0.0
 40
0.0
 40
0.1078936521458104
 40
0.2092686592382499
 40
0.3076240050571744
 40
0.4072328481183409
 40
0.4602726796561163
 40
0.518128864636406
 40
0.5823908294072984
 40
0.6523333572932599
 40
0.728719123337578
 40
0.8124438924217426
 40
0.9024031203842511
 40
1.0
 40
1.0
 40
1.0
 40
1.0
 10
14.5785421336368
 20
2.146527848733967
 30
0.0
 10
14.58041444646125
 20
2.146446840690017
 30
0.0
 10
14.58404595199153
 20
2.146289718890837
 30
0.0
 10
14.58921281074492
 20
2.144828466560202
 30
0.0
 10
14.59390697628057
 20
2.142544086156438
 30
0.0
 10
14.59727397717935
 20
2.139740262888337
 30
0.0
 10
14.59976747835917
 20
2.137072040605938
 30
0.0
 10
14.60148492038708
 20
2.134561237105532
 30
0.0
 10
14.6031689977188
 20
2.13169261300885
 30
0.0
 10
14.60479118778486
 20
2.128420691767102
 30
0.0
 10
14.60623934271787
 20
2.124706723290143
 30
0.0
 10
14.60769308816307
 20
2.120626103474278
 30
0.0
 10
14.60898483913149
 20
2.116106670008908
 30
0.0
 10
14.60978132125381
 20
2.112957973957926
 30
0.0
 10
14.61019577947013
 20
2.111319515400634
 30
0.0
  0
SPLINE
  5
14E
330
1F
100
AcDbEntity
  8
FORMAT
100
AcDbSpline
210
0.0
220
0.0
230
1.0
 70
     8
 71
     3
 72
    23
 73
    19
 74
     0
 42
0.000000001
 43
0.00000001
 40
0.0
 40
0.0
 40
0.0
 40
0.0
 40
0.0615953020558095
 40
0.1210808591208797
 40
0.1791561102670026
 40
0.2367828971638876
 40
0.2948026105904341
 40
0.3543217075381102
 40
0.4151546248757345
 40
0.4787052730919934
 40
0.5438755031975272
 40
0.6078066831965918
 40
0.671797866568915
 40
0.7360022067835793
 40
0.8002113289101561
 40
0.8655979157442812
 40
0.9321319069640818
 40
1.0
 40
1.0
 40
1.0
 40
1.0
 10
14.6875948680118
 20
2.016527848733967
 30
0.0
 10
14.68916366186152
 20
2.016577394059922
 30
0.0
 10
14.69224751567452
 20
2.016674787699244
 30
0.0
 10
14.69675838885195
 20
2.017420786019061
 30
0.0
 10
14.70107570773311
 20
2.018583855205307
 30
0.0
 10
14.7051491502383
 20
2.020328494445312
 30
0.0
 10
14.70910066783846
 20
2.022418327828341
 30
0.0
 10
14.71275571315804
 20
2.025133139657353
 30
0.0
 10
14.71627716491662
 20
2.028229015431229
 30
0.0
 10
14.71948758323758
 20
2.031844277214716
 30
0.0
 10
14.72249032684373
 20
2.035724151644653
 30
0.0
 10
14.72523593178768
 20
2.039808355823374
 30
0.0
 10
14.7275944669403
 20
2.044099546991707
 30
0.0
 10
14.72966086821275
 20
2.048542765569977
 30
0.0
 10
14.73147381498645
 20
2.053137133963362
 30
0.0
 10
14.73288252163027
 20
2.057931279930179
 30
0.0
 10
14.73405993800327
 20
2.062884737251974
 30
0.0
 10
14.73453780673006
 20
2.066274484693123
 30
0.0
 10
14.73477911280346
 20
2.067986182067302
 30
0.0
  0
SPLINE
  5
14F
330
1F
100
AcDbEntity
  8
FORMAT
100
AcDbSpline
210
0.0
220
0.0
230
1.0
 70
     8
 71
     3
 72
    19
 73
    15
 74
     0
 42
0.000000001
 43
0.00000001
 40
0.0
 40
0.0
 40
0.0
 40
0.0
 40
0.0912625505003181
 40
0.176942927459843
 40
0.2558178670960726
 40
0.3289155915631585
 40
0.3965105118212181
 40
0.4592597433772135
 40
0.5173312901970244
 40
0.5719853747904768
 40
0.6763101174058048
 40
0.7802836093323123
 40
0.8874047732235821
 40
0.9999999999999999
 40
0.9999999999999999
 40
0.9999999999999999
 40
0.9999999999999999
 10
14.73207077947014
 20
2.070694515400625
 30
0.0
 10
14.73160922244744
 20
2.069277280555159
 30
0.0
 10
14.73071434004126
 20
2.066529497580874
 30
0.0
 10
14.72912636243706
 20
2.062665184028198
 30
0.0
 10
14.72755580895203
 20
2.059113258527846
 30
0.0
 10
14.72578574649363
 20
2.055993789907056
 30
0.0
 10
14.72404785744602
 20
2.053157128543765
 30
0.0
 10
14.7221121505421
 20
2.050761662339559
 30
0.0
 10
14.72018764360576
 20
2.048629610408808
 30
0.0
 10
14.71740597883857
 20
2.046419759228869
 30
0.0
 10
14.71373871502408
 20
2.044145772718554
 30
0.0
 10
14.70890966519609
 20
2.042296577966744
 30
0.0
 10
14.70373363938233
 20
2.041102096305029
 30
0.0
 10
14.70014187395435
 20
2.040970358638137
 30
0.0
 10
14.69830124822013
 20
2.040902848733968
 30
0.0
  0
SPLINE
  5
150
330
1F
100
AcDbEntity
  8
FORMAT
100
AcDbSpline
210
0.0
220
0.0
230
1.0
 70
     8
 71
     3
 72
    15
 73
    11
 74
     0
 42
0.000000001
 43
0.00000001
 40
0.0
 40
0.0
 40
0.0
 40
0.0
 40
0.1191771177537525
 40
0.2355902078063824
 40
0.353009778711413
 40
0.4717803441798626
 40
0.5934335267494592
 40
0.7223640646733855
 40
0.8566107685611487
 40
1.0
 40
1.0
 40
1.0
 40
1.0
 10
14.69830124822013
 20
2.040902848733968
 30
0.0
 10
14.69689997303803
 20
2.040944497593637
 30
0.0
 10
14.69412992189427
 20
2.041026829367467
 30
0.0
 10
14.69006341726086
 20
2.041905309111419
 30
0.0
 10
14.68610259828169
 20
2.043135568920898
 30
0.0
 10
14.68231765295363
 20
2.044993866121366
 30
0.0
 10
14.67867312836166
 20
2.047359444069517
 30
0.0
 10
14.67518767338788
 20
2.050245217646365
 30
0.0
 10
14.67179238334441
 20
2.053613955366266
 30
0.0
 10
14.66976713822759
 20
2.056170845992794
 30
0.0
 10
14.66872117009513
 20
2.057491390400633
 30
0.0
  0
SPLINE
  5
151
330
1F
100
AcDbEntity
  8
FORMAT
100
AcDbSpline
210
0.0
220
0.0
230
1.0
 70
     8
 71
     3
 72
    15
 73
    11
 74
     0
 42
0.000000001
 43
0.00000001
 40
0.0
 40
0.0
 40
0.0
 40
0.0
 40
0.1085524342160326
 40
0.2200441663232802
 40
0.3352649722243588
 40
0.4559782471056599
 40
0.5811383568418438
 40
0.7134313388638471
 40
0.8525416281570806
 40
1.0
 40
1.0
 40
1.0
 40
1.0
 10
14.66872117009513
 20
2.057491390400633
 30
0.0
 10
14.66769867142585
 20
2.058907961927137
 30
0.0
 10
14.66562598766823
 20
2.061779461795727
 30
0.0
 10
14.66312696603761
 20
2.066572085832056
 30
0.0
 10
14.66094984559055
 20
2.071719783375042
 30
0.0
 10
14.65918377590901
 20
2.077258793245077
 30
0.0
 10
14.65783700215508
 20
2.08319279810212
 30
0.0
 10
14.65686626792885
 20
2.089498456832063
 30
0.0
 10
14.65632091148105
 20
2.096216393870152
 30
0.0
 10
14.65626580304278
 20
2.100823735791945
 30
0.0
 10
14.6562374461368
 20
2.103194515400634
 30
0.0
  0
SPLINE
  5
152
330
1F
100
AcDbEntity
  8
FORMAT
100
AcDbSpline
210
0.0
220
0.0
230
1.0
 70
     8
 71
     3
 72
    15
 73
    11
 74
     0
 42
0.000000001
 43
0.00000001
 40
0.0
 40
0.0
 40
0.0
 40
0.0
 40
0.161773227130134
 40
0.3097124833178099
 40
0.4468719347144207
 40
0.5734494994456356
 40
0.6886916790602143
 40
0.7964659708752462
 40
0.9003758144396499
 40
1.0
 40
1.0
 40
1.0
 40
1.0
 10
15.00225360259938
 20
2.120093962679545
 30
0.0
 10
15.00359215120747
 20
2.121879981413977
 30
0.0
 10
15.00615478299029
 20
2.12529928822578
 30
0.0
 10
15.01031931728256
 20
2.12984860818948
 30
0.0
 10
15.01437965574467
 20
2.133826345676814
 30
0.0
 10
15.01855019389976
 20
2.136996174754755
 30
0.0
 10
15.02269634369996
 20
2.139478280815825
 30
0.0
 10
15.0268516760068
 20
2.141255888038792
 30
0.0
 10
15.03102814099332
 20
2.142361160271457
 30
0.0
 10
15.03383548266723
 20
2.142523881526238
 30
0.0
 10
15.03520959749734
 20
2.142603529006077
 30
0.0
  0
SPLINE
  5
153
330
1F
100
AcDbEntity
  8
FORMAT
100
AcDbSpline
210
0.0
220
0.0
230
1.0
 70
     8
 71
     3
 72
    15
 73
    11
 74
     0
 42
0.000000001
 43
0.00000001
 40
0.0
 40
0.0
 40
0.0
 40
0.0
 40
0.1248221054610154
 40
0.2342451900797272
 40
0.336652402668269
 40
0.4352797142189287
 40
0.5446772017961701
 40
0.6730680570229759
 40
0.8236018516271992
 40
1.0
 40
1.0
 40
1.0
 40
1.0
 10
15.03520959749734
 20
2.142603529006077
 30
0.0
 10
15.03710363175019
 20
2.142509276062933
 30
0.0
 10
15.04065803753383
 20
2.142332397949074
 30
0.0
 10
15.04564680389128
 20
2.1409915627835
 30
0.0
 10
15.04972701059604
 20
2.138516358375039
 30
0.0
 10
15.05296739866846
 20
2.13501073394361
 30
0.0
 10
15.05523809216559
 20
2.130384851266619
 30
0.0
 10
15.05688158342424
 20
2.124710009080475
 30
0.0
 10
15.05783955693648
 20
2.117845482230436
 30
0.0
 10
15.05792291302269
 20
2.112884105602331
 30
0.0
 10
15.05796788831367
 20
2.110207164210157
 30
0.0
  0
SPLINE
  5
154
330
1F
100
AcDbEntity
  8
FORMAT
100
AcDbSpline
210
0.0
220
0.0
230
1.0
 70
     8
 71
     3
 72
    23
 73
    19
 74
     0
 42
0.000000001
 43
0.00000001
 40
0.0
 40
0.0
 40
0.0
 40
0.0
 40
0.080396911462257
 40
0.1560755294597753
 40
0.227311565543047
 40
0.294624385055155
 40
0.3574984101117625
 40
0.4172206902786249
 40
0.474765834248503
 40
0.5292793221725642
 40
0.5837613267050747
 40
0.6373286697622939
 40
0.6916024258753772
 40
0.7483065726113665
 40
0.8059410955799238
 40
0.8668693187086326
 40
0.9311947436714565
 40
1.0
 40
1.0
 40
1.0
 40
1.0
 10
15.08184543933408
 20
2.108528273904035
 30
0.0
 10
15.08180770066983
 20
2.110539971949621
 30
0.0
 10
15.08173443812906
 20
2.114445306518667
 30
0.0
 10
15.0812252575879
 20
2.1201137655136
 30
0.0
 10
15.08044941159272
 20
2.125421738240691
 30
0.0
 10
15.07926838129803
 20
2.130328722936925
 30
0.0
 10
15.07776906392272
 20
2.134841553837049
 30
0.0
 10
15.07598441883882
 20
2.13899166352588
 30
0.0
 10
15.07379237964161
 20
2.142696160181769
 30
0.0
 10
15.07136298671674
 20
2.146098022686883
 30
0.0
 10
15.06846764922419
 20
2.148970407689198
 30
0.0
 10
15.06535771103024
 20
2.151598863819739
 30
0.0
 10
15.06179715152284
 20
2.153694402174253
 30
0.0
 10
15.05797945152426
 20
2.15549957354217
 30
0.0
 10
15.05380772330659
 20
2.15689750104859
 30
0.0
 10
15.04930976464407
 20
2.157766063972532
 30
0.0
 10
15.04449502247085
 20
2.158449419051827
 30
0.0
 10
15.04116101304454
 20
2.158497201297024
 30
0.0
 10
15.03943791382387
 20
2.158521896353015
 30
0.0
  0
SPLINE
  5
155
330
1F
100
AcDbEntity
  8
FORMAT
100
AcDbSpline
210
0.0
220
0.0
230
1.0
 70
     8
 71
     3
 72
    15
 73
    11
 74
     0
 42
0.000000001
 43
0.00000001
 40
0.0
 40
0.0
 40
0.0
 40
0.0
 40
0.1229791675096317
 40
0.24563861148013
 40
0.3662596611970235
 40
0.4861810740058831
 40
0.6094518344974953
 40
0.73585024056871
 40
0.8652747437631059
 40
1.0
 40
1.0
 40
1.0
 40
1.0
 10
15.03943791382387
 20
2.158521896353015
 30
0.0
 10
15.03773563555733
 20
2.158473854827355
 30
0.0
 10
15.03433550463911
 20
2.158377896675292
 30
0.0
 10
15.02931322363127
 20
2.15761258388999
 30
0.0
 10
15.02443340653308
 20
2.156376038866295
 30
0.0
 10
15.01971533609151
 20
2.154594387106433
 30
0.0
 10
15.01510926264073
 20
2.152356415143425
 30
0.0
 10
15.01062788771898
 20
2.149615118939576
 30
0.0
 10
15.00630236891365
 20
2.146358327821865
 30
0.0
 10
15.00362112640435
 20
2.143871761441559
 30
0.0
 10
15.00225360259938
 20
2.142603529006071
 30
0.0
  0
SPLINE
  5
156
330
1F
100
AcDbEntity
  8
FORMAT
100
AcDbSpline
210
0.0
220
0.0
230
1.0
 70
     8
 71
     3
 72
     9
 73
     5
 74
     0
 42
0.000000001
 43
0.00000001
 40
0.0
 40
0.0
 40
0.0
 40
0.0
 40
0.5452305272782787
 40
1.0
 40
1.0
 40
1.0
 40
1.0
 10
14.74667038884513
 20
2.132986182067301
 30
0.0
 10
14.74794386252769
 20
2.133608399399781
 30
0.0
 10
14.750279523535
 20
2.13474959986702
 30
0.0
 10
14.75286010185378
 20
2.135020972983298
 30
0.0
 10
14.75403367009513
 20
2.1351443851923
 30
0.0
  0
SPLINE
  5
157
330
1F
100
AcDbEntity
  8
FORMAT
100
AcDbSpline
210
0.0
220
0.0
230
1.0
 70
     8
 71
     3
 72
    21
 73
    17
 74
     0
 42
0.000000001
 43
0.00000001
 40
0.0
 40
0.0
 40
0.0
 40
0.0
 40
0.0674082780214863
 40
0.1337457951625136
 40
0.1707620335965867
 40
0.2116570062168897
 40
0.257992012839507
 40
0.3109287634167105
 40
0.3464560453663402
 40
0.3961405297633624
 40
0.4601218921614139
 40
0.5383703700463714
 40
0.6320368987161294
 40
0.740004635443567
 40
0.8622932191469269
 40
1.0
 40
1.0
 40
1.0
 40
1.0
 10
14.75403367009513
 20
2.1351443851923
 30
0.0
 10
14.75490431012736
 20
2.135050209707465
 30
0.0
 10
14.75663176032826
 20
2.134863354687967
 30
0.0
 10
14.75847110810481
 20
2.133492438281488
 30
0.0
 10
14.75954841013095
 20
2.131990216969528
 30
0.0
 10
14.76028707581054
 20
2.13057100483556
 30
0.0
 10
14.76080837467209
 20
2.128847455151213
 30
0.0
 10
14.7611748530123
 20
2.127159049923162
 30
0.0
 10
14.76138985509579
 20
2.125401475942198
 30
0.0
 10
14.76148920933761
 20
2.12349325853267
 30
0.0
 10
14.76163378879207
 20
2.121040102608839
 30
0.0
 10
14.7616926536086
 20
2.118019713871623
 30
0.0
 10
14.76179682882075
 20
2.114437520775505
 30
0.0
 10
14.76181544308578
 20
2.110289697484519
 30
0.0
 10
14.7618766235851
 20
2.105578562792062
 30
0.0
 10
14.7618673551643
 20
2.102249449790593
 30
0.0
 10
14.7618624461368
 20
2.100486182067301
 30
0.0
  0
SPLINE
  5
158
330
1F
100
AcDbEntity
  8
FORMAT
100
AcDbSpline
210
0.0
220
0.0
230
1.0
 70
     8
 71
     3
 72
    11
 73
     7
 74
     0
 42
0.000000001
 43
0.00000001
 40
0.0
 40
0.0
 40
0.0
 40
0.0
 40
0.3701949263111419
 40
0.6615492740845912
 40
0.8712662870737296
 40
1.0
 40
1.0
 40
1.0
 40
1.0
 10
14.7618624461368
 20
2.049027848733966
 30
0.0
 10
14.76185307650525
 20
2.047306651360687
 30
0.0
 10
14.76183633269677
 20
2.044230820786248
 30
0.0
 10
14.76175452103255
 20
2.040183422526036
 30
0.0
 10
14.76165314202569
 20
2.037251785563678
 30
0.0
 10
14.76140623131885
 20
2.035696785318443
 30
0.0
 10
14.76131231592846
 20
2.035105322692301
 30
0.0
  0
SPLINE
  5
159
330
1F
100
AcDbEntity
  8
FORMAT
100
AcDbSpline
210
0.0
220
0.0
230
1.0
 70
     8
 71
     3
 72
    11
 73
     7
 74
     0
 42
0.000000001
 43
0.00000001
 40
0.0
 40
0.0
 40
0.0
 40
0.0
 40
0.2871596765460058
 40
0.5452330966095351
 40
0.7802155147754359
 40
1.0
 40
1.0
 40
1.0
 40
1.0
 10
14.76131231592846
 20
2.035105322692301
 30
0.0
 10
14.76110909773763
 20
2.034321841142361
 30
0.0
 10
14.76072324522237
 20
2.03283423648718
 30
0.0
 10
14.75982324706101
 20
2.03082401134944
 30
0.0
 10
14.7587368435366
 20
2.029116136557535
 30
0.0
 10
14.75779138324252
 20
2.028246812731267
 30
0.0
 10
14.75733445134513
 20
2.027826676858967
 30
0.0
  0
SPLINE
  5
15A
330
1F
100
AcDbEntity
  8
FORMAT
100
AcDbSpline
210
0.0
220
0.0
230
1.0
 70
     8
 71
     3
 72
    11
 73
     7
 74
     0
 42
0.000000001
 43
0.00000001
 40
0.0
 40
0.0
 40
0.0
 40
0.0
 40
0.2078649600102188
 40
0.4373623910891272
 40
0.701802911107348
 40
0.9999999999999999
 40
0.9999999999999999
 40
0.9999999999999999
 40
0.9999999999999999
 10
14.75733445134513
 20
2.027826676858967
 30
0.0
 10
14.75663459090726
 20
2.027324720847261
 30
0.0
 10
14.75516203567467
 20
2.026268570347002
 30
0.0
 10
14.7523826949868
 20
2.0253508897177
 30
0.0
 10
14.74916503318927
 20
2.024763071990894
 30
0.0
 10
14.74684307859131
 20
2.024691030575879
 30
0.0
 10
14.7456124461368
 20
2.024652848733969
 30
0.0
  0
SPLINE
  5
15B
330
1F
100
AcDbEntity
  8
FORMAT
100
AcDbSpline
210
0.0
220
0.0
230
1.0
 70
     8
 71
     3
 72
    15
 73
    11
 74
     0
 42
0.000000001
 43
0.00000001
 40
0.0
 40
0.0
 40
0.0
 40
0.0
 40
0.1787477297463821
 40
0.3376823359105477
 40
0.4756216932219104
 40
0.5979802223526292
 40
0.708351102547482
 40
0.8106713099407981
 40
0.9061055724032353
 40
1.0
 40
1.0
 40
1.0
 40
1.0
 10
14.80519577947013
 20
2.024652848733969
 30
0.0
 10
14.80388157164984
 20
2.024663610505268
 30
0.0
 10
14.80139882813608
 20
2.024683941169475
 30
0.0
 10
14.79793748476369
 20
2.025188449895553
 30
0.0
 10
14.79491355913798
 20
2.02580350525647
 30
0.0
 10
14.79237565192092
 20
2.026834195589837
 30
0.0
 10
14.79027756606702
 20
2.028132900487056
 30
0.0
 10
14.78851203468151
 20
2.029560888671881
 30
0.0
 10
14.78711648609753
 20
2.031207447836935
 30
0.0
 10
14.78644400090385
 20
2.032426958748585
 30
0.0
 10
14.7861104930118
 20
2.033031754983968
 30
0.0
  0
SPLINE
  5
15C
330
1F
100
AcDbEntity
  8
FORMAT
100
AcDbSpline
210
0.0
220
0.0
230
1.0
 70
     8
 71
     3
 72
    11
 73
     7
 74
     0
 42
0.000000001
 43
0.00000001
 40
0.0
 40
0.0
 40
0.0
 40
0.0
 40
0.199415885486928
 40
0.4303522929357387
 40
0.6964044987949536
 40
1.0
 40
1.0
 40
1.0
 40
1.0
 10
14.7861104930118
 20
2.033031754983968
 30
0.0
 10
14.78569848993497
 20
2.034037509098726
 30
0.0
 10
14.78480936082482
 20
2.036207991095985
 30
0.0
 10
14.78407469253065
 20
2.0399434814946
 30
0.0
 10
14.78361911655075
 20
2.044276202634914
 30
0.0
 10
14.78356040389455
 20
2.047375870951225
 30
0.0
 10
14.78352911280347
 20
2.049027848733966
 30
0.0
  0
SPLINE
  5
15D
330
1F
100
AcDbEntity
  8
FORMAT
100
AcDbSpline
210
0.0
220
0.0
230
1.0
 70
     8
 71
     3
 72
    11
 73
     7
 74
     0
 42
0.000000001
 43
0.00000001
 40
0.0
 40
0.0
 40
0.0
 40
0.0
 40
0.3055663661557705
 40
0.57347670012648
 40
0.8025784037227511
 40
1.0
 40
1.0
 40
1.0
 40
1.0
 10
14.78352911280347
 20
2.110176937275635
 30
0.0
 10
14.78454415760251
 20
2.112336043268286
 30
0.0
 10
14.78644915961292
 20
2.116388180928155
 30
0.0
 10
14.78954098256705
 20
2.121837180047648
 30
0.0
 10
14.79250147948892
 20
2.126395892322368
 30
0.0
 10
14.79472824465364
 20
2.128875995832434
 30
0.0
 10
14.7957589305118
 20
2.130023942483966
 30
0.0
  0
SPLINE
  5
15E
330
1F
100
AcDbEntity
  8
FORMAT
100
AcDbSpline
210
0.0
220
0.0
230
1.0
 70
     8
 71
     3
 72
    11
 73
     7
 74
     0
 42
0.000000001
 43
0.00000001
 40
0.0
 40
0.0
 40
0.0
 40
0.0
 40
0.308452748589495
 40
0.5773021412731016
 40
0.7973256448189898
 40
1.0
 40
1.0
 40
1.0
 40
1.0
 10
14.7957589305118
 20
2.130023942483966
 30
0.0
 10
14.79619484477898
 20
2.130479957185377
 30
0.0
 10
14.79701070471541
 20
2.131333437223339
 30
0.0
 10
14.7983621046353
 20
2.132240329240891
 30
0.0
 10
14.79963900773268
 20
2.132890872822598
 30
0.0
 10
14.80050599131178
 20
2.132955293679102
 30
0.0
 10
14.80092169092847
 20
2.132986182067301
 30
0.0
  0
SPLINE
  5
15F
330
1F
100
AcDbEntity
  8
FORMAT
100
AcDbSpline
210
0.0
220
0.0
230
1.0
 70
     8
 71
     3
 72
    15
 73
    11
 74
     0
 42
0.000000001
 43
0.00000001
 40
0.0
 40
0.0
 40
0.0
 40
0.0
 40
0.0739925681203949
 40
0.1754076471848531
 40
0.306761244903318
 40
0.4715194480634377
 40
0.6392195840080481
 40
0.781800577088312
 40
0.8990947849111278
 40
1.0
 40
1.0
 40
1.0
 40
1.0
 10
14.80092169092847
 20
2.132986182067301
 30
0.0
 10
14.80145260318041
 20
2.132900382304203
 30
0.0
 10
14.80271118997285
 20
2.132696984382538
 30
0.0
 10
14.80464708715032
 20
2.131543791053311
 30
0.0
 10
14.80693903867303
 20
2.129830566322505
 30
0.0
 10
14.80939643447973
 20
2.127551294115151
 30
0.0
 10
14.81193882918828
 20
2.125238746908099
 30
0.0
 10
14.81452258955028
 20
2.123550028217451
 30
0.0
 10
14.81689582643577
 20
2.122387343488044
 30
0.0
 10
14.8184734000306
 20
2.122226999156055
 30
0.0
 10
14.81920294092846
 20
2.122152848733966
 30
0.0
  0
SPLINE
  5
160
330
1F
100
AcDbEntity
  8
FORMAT
100
AcDbSpline
210
0.0
220
0.0
230
1.0
 70
     8
 71
     3
 72
    15
 73
    11
 74
     0
 42
0.000000001
 43
0.00000001
 40
0.0
 40
0.0
 40
0.0
 40
0.0
 40
0.1027203425858477
 40
0.2064454158170571
 40
0.3168868824126988
 40
0.4403413698215334
 40
0.5736310854386778
 40
0.7080996338720945
 40
0.8488594065338602
 40
0.9999999999999999
 40
0.9999999999999999
 40
0.9999999999999999
 40
0.9999999999999999
 10
14.81920294092846
 20
2.122152848733966
 30
0.0
 10
14.81988792132201
 20
2.122198606165488
 30
0.0
 10
14.82126458205554
 20
2.122290568592197
 30
0.0
 10
14.82323082375408
 20
2.123154866553193
 30
0.0
 10
14.82498523735501
 20
2.124574684224094
 30
0.0
 10
14.82658274682865
 20
2.126435672059312
 30
0.0
 10
14.82790011894432
 20
2.128689376065816
 30
0.0
 10
14.82890391449866
 20
2.13122445294211
 30
0.0
 10
14.82943630651422
 20
2.13402233536894
 30
0.0
 10
14.82952490488016
 20
2.135960500636901
 30
0.0
 10
14.82957077947013
 20
2.136964046650634
 30
0.0
  0
SPLINE
  5
161
330
1F
100
AcDbEntity
  8
FORMAT
100
AcDbSpline
210
0.0
220
0.0
230
1.0
 70
     8
 71
     3
 72
    15
 73
    11
 74
     0
 42
0.000000001
 43
0.00000001
 40
0.0
 40
0.0
 40
0.0
 40
0.0
 40
0.1294106297700766
 40
0.2529620512970103
 40
0.3782646185260226
 40
0.5059407599757751
 40
0.6331696285265696
 40
0.7533003848293481
 40
0.8736102757307515
 40
1.0
 40
1.0
 40
1.0
 40
1.0
 10
14.82957077947013
 20
2.136964046650634
 30
0.0
 10
14.82951406287452
 20
2.138112168835757
 30
0.0
 10
14.82940319758938
 20
2.140356430714433
 30
0.0
 10
14.82851707649917
 20
2.143617338407027
 30
0.0
 10
14.8270642945899
 20
2.146638427966369
 30
0.0
 10
14.82508240351696
 20
2.149387513834759
 30
0.0
 10
14.82266062678228
 20
2.151689097907732
 30
0.0
 10
14.8199001436282
 20
2.153471463125807
 30
0.0
 10
14.81675614175575
 20
2.154457709954044
 30
0.0
 10
14.81456850683706
 20
2.154586742485459
 30
0.0
 10
14.81344773259513
 20
2.154652848733969
 30
0.0
  0
SPLINE
  5
162
330
1F
100
AcDbEntity
  8
FORMAT
100
AcDbSpline
210
0.0
220
0.0
230
1.0
 70
     8
 71
     3
 72
    15
 73
    11
 74
     0
 42
0.000000001
 43
0.00000001
 40
0.0
 40
0.0
 40
0.0
 40
0.0
 40
0.0826224443397076
 40
0.170828936603972
 40
0.2690134167713831
 40
0.3810031019785766
 40
0.5084807025252901
 40
0.653100759101944
 40
0.8164354128591538
 40
1.0
 40
1.0
 40
1.0
 40
1.0
 10
14.81344773259513
 20
2.154652848733969
 30
0.0
 10
14.81216437840901
 20
2.154548815137868
 30
0.0
 10
14.80951093438841
 20
2.154333716822452
 30
0.0
 10
14.80561157981915
 20
2.152677473401199
 30
0.0
 10
14.80181789916365
 20
2.150001898070447
 30
0.0
 10
14.79804645473516
 20
2.146344992470946
 30
0.0
 10
14.7943323566092
 20
2.14167533866955
 30
0.0
 10
14.79067521640402
 20
2.135993789623665
 30
0.0
 10
14.78698121267791
 20
2.129322400631699
 30
0.0
 10
14.78472369621279
 20
2.124440122443649
 30
0.0
 10
14.78352911280347
 20
2.121856624775635
 30
0.0
  0
SPLINE
  5
163
330
1F
100
AcDbEntity
  8
FORMAT
100
AcDbSpline
210
0.0
220
0.0
230
1.0
 70
     8
 71
     3
 72
    15
 73
    11
 74
     0
 42
0.000000001
 43
0.00000001
 40
0.0
 40
0.0
 40
0.0
 40
0.0
 40
0.1012042801490942
 40
0.2020744170766048
 40
0.3101786377534805
 40
0.4283871852890262
 40
0.5559724693355435
 40
0.6908830894787614
 40
0.8381846653543302
 40
1.0
 40
1.0
 40
1.0
 40
1.0
 10
14.6835323680118
 20
2.146527848733967
 30
0.0
 10
14.68187995196584
 20
2.146413594246286
 30
0.0
 10
14.67858057560781
 20
2.146185462501636
 30
0.0
 10
14.67381227760762
 20
2.144307309081004
 30
0.0
 10
14.66936987902893
 20
2.141313265111069
 30
0.0
 10
14.66526906129825
 20
2.137216188285862
 30
0.0
 10
14.66171017604335
 20
2.132093633785639
 30
0.0
 10
14.65901385519239
 20
2.125953882019448
 30
0.0
 10
14.65710176827253
 20
2.118949241504824
 30
0.0
 10
14.65653443275658
 20
2.113941138140371
 30
0.0
 10
14.6562374461368
 20
2.111319515400636
 30
0.0
  0
SPLINE
  5
164
330
1F
100
AcDbEntity
  8
FORMAT
100
AcDbSpline
210
0.0
220
0.0
230
1.0
 70
     8
 71
     3
 72
    11
 73
     7
 74
     0
 42
0.000000001
 43
0.00000001
 40
0.0
 40
0.0
 40
0.0
 40
0.0
 40
0.3250693485956752
 40
0.5997974275554133
 40
0.8227277824578104
 40
1.0
 40
1.0
 40
1.0
 40
1.0
 10
14.70769577947013
 20
2.111319515400636
 30
0.0
 10
14.70758824574202
 20
2.113281957050849
 30
0.0
 10
14.70738983129975
 20
2.116902930417337
 30
0.0
 10
14.7068456103178
 20
2.121845619903818
 30
0.0
 10
14.70619196405751
 20
2.125882787404747
 30
0.0
 10
14.70547451533998
 20
2.128195483092575
 30
0.0
 10
14.70515671697013
 20
2.129219906025635
 30
0.0
  0
SPLINE
  5
165
330
1F
100
AcDbEntity
  8
FORMAT
100
AcDbSpline
210
0.0
220
0.0
230
1.0
 70
     8
 71
     3
 72
    17
 73
    13
 74
     0
 42
0.000000001
 43
0.00000001
 40
0.0
 40
0.0
 40
0.0
 40
0.0
 40
0.1297788090018115
 40
0.2541357286710861
 40
0.3742292472081464
 40
0.4913199903122885
 40
0.6085817759119763
 40
0.7303797572107843
 40
0.7943778081000262
 40
0.8596603770078278
 40
0.928210807406895
 40
1.0
 40
1.0
 40
1.0
 40
1.0
 10
15.16330270974224
 20
2.015256590230567
 30
0.0
 10
15.16648552385294
 20
2.015378404973315
 30
0.0
 10
15.17271818070555
 20
2.015616945291642
 30
0.0
 10
15.18170000696233
 20
2.017766959917053
 30
0.0
 10
15.18984004913781
 20
2.021348737282949
 30
0.0
 10
15.19714541145749
 20
2.026145986885393
 30
0.0
 10
15.20327328638787
 20
2.032447698351948
 30
0.0
 10
15.20732338250756
 20
2.038734717683008
 30
0.0
 10
15.20982527257217
 20
2.044361849243412
 30
0.0
 10
15.21141900482229
 20
2.048947312692656
 30
0.0
 10
15.21251926998174
 20
2.053874853929186
 30
0.0
 10
15.21295108150486
 20
2.057286771486249
 30
0.0
 10
15.21317196994632
 20
2.059032100434649
 30
0.0
  0
SPLINE
  5
166
330
1F
100
AcDbEntity
  8
FORMAT
100
AcDbSpline
210
0.0
220
0.0
230
1.0
 70
     8
 71
     3
 72
    15
 73
    11
 74
     0
 42
0.000000001
 43
0.00000001
 40
0.0
 40
0.0
 40
0.0
 40
0.0
 40
0.1595903882826558
 40
0.3007915029503102
 40
0.4269399348888004
 40
0.5457009142479082
 40
0.6585483600147686
 40
0.7723748765374496
 40
0.8862663651872164
 40
1.0
 40
1.0
 40
1.0
 40
1.0
 10
15.18929441892591
 20
2.059032100434649
 30
0.0
 10
15.18911041522862
 20
2.056758430152114
 30
0.0
 10
15.18876361020325
 20
2.052473079957434
 30
0.0
 10
15.18697882755271
 20
2.046608671940343
 30
0.0
 10
15.18447986140471
 20
2.041665463494817
 30
0.0
 10
15.18120471930252
 20
2.037705673823457
 30
0.0
 10
15.17732621077125
 20
2.034596637347702
 30
0.0
 10
15.17286026996925
 20
2.032598427873039
 30
0.0
 10
15.16811445072385
 20
2.031379237822872
 30
0.0
 10
15.16486441804184
 20
2.031243019504328
 30
0.0
 10
15.16324052861979
 20
2.031174957577505
 30
0.0
  0
SPLINE
  5
167
330
1F
100
AcDbEntity
  8
FORMAT
100
AcDbSpline
210
0.0
220
0.0
230
1.0
 70
     8
 71
     3
 72
    23
 73
    19
 74
     0
 42
0.000000001
 43
0.00000001
 40
0.0
 40
0.0
 40
0.0
 40
0.0
 40
0.0523505322797968
 40
0.1019089151570197
 40
0.150654137753885
 40
0.1992939325869153
 40
0.248696692494412
 40
0.300256769618378
 40
0.3530258895769348
 40
0.4095720078831954
 40
0.4686302445447684
 40
0.5314959284667005
 40
0.5983857543309277
 40
0.6690035259743994
 40
0.743914774176853
 40
0.8242170935933266
 40
0.9092090190472728
 40
1.0
 40
1.0
 40
1.0
 40
1.0
 10
15.16324052861979
 20
2.031174957577505
 30
0.0
 10
15.16197413943443
 20
2.031231438966254
 30
0.0
 10
15.15950890474766
 20
2.031341389272459
 30
0.0
 10
15.15589877511967
 20
2.031948067658118
 30
0.0
 10
15.15251793788445
 20
2.033093548959085
 30
0.0
 10
15.14932034315362
 20
2.034661249202394
 30
0.0
 10
15.14629190319714
 20
2.036669313406652
 30
0.0
 10
15.14352246001575
 20
2.039169835547138
 30
0.0
 10
15.14092140064005
 20
2.042077930031576
 30
0.0
 10
15.13859173838392
 20
2.045432229202924
 30
0.0
 10
15.13646106390927
 20
2.049195774119656
 30
0.0
 10
15.13459174735121
 20
2.053374256258714
 30
0.0
 10
15.13305405971707
 20
2.057981150369745
 30
0.0
 10
15.13182997293564
 20
2.06297859055343
 30
0.0
 10
15.13083523136418
 20
2.068355828706243
 30
0.0
 10
15.13009187285681
 20
2.074124783729961
 30
0.0
 10
15.12965243593715
 20
2.080311853940306
 30
0.0
 10
15.12961821586755
 20
2.084567078903086
 30
0.0
 10
15.12960054137489
 20
2.086764881046892
 30
0.0
  0
SPLINE
  5
168
330
1F
100
AcDbEntity
  8
FORMAT
100
AcDbSpline
210
0.0
220
0.0
230
1.0
 70
     8
 71
     3
 72
    23
 73
    19
 74
     0
 42
0.000000001
 43
0.00000001
 40
0.0
 40
0.0
 40
0.0
 40
0.0
 40
0.0900178278866137
 40
0.1760073974421125
 40
0.2555338463018058
 40
0.3315168526991124
 40
0.4034619094738466
 40
0.4698846770202946
 40
0.5324630208955949
 40
0.5915758008604357
 40
0.6476852330829949
 40
0.7005030880237614
 40
0.7514733175277277
 40
0.8014022626712107
 40
0.8504702993921637
 40
0.8995383361131174
 40
0.9484564090459343
 40
1.0
 40
1.0
 40
1.0
 40
1.0
 10
15.12960054137489
 20
2.086764881046892
 30
0.0
 10
15.12961180127926
 20
2.088942472441744
 30
0.0
 10
15.12963381721222
 20
2.093200208971254
 30
0.0
 10
15.13016854771577
 20
2.099360894403745
 30
0.0
 10
15.1308916573031
 20
2.105157788791093
 30
0.0
 10
15.13194328528947
 20
2.110560680280449
 30
0.0
 10
15.13328390751398
 20
2.11557451664543
 30
0.0
 10
15.13494434498649
 20
2.120142746941021
 30
0.0
 10
15.13668678538458
 20
2.124354242821321
 30
0.0
 10
15.13885673884033
 20
2.128073118631558
 30
0.0
 10
15.14109771956027
 20
2.131473649184716
 30
0.0
 10
15.14371028981023
 20
2.134337904104176
 30
0.0
 10
15.14643552748714
 20
2.136876642062739
 30
0.0
 10
15.14944269051292
 20
2.138927366097862
 30
0.0
 10
15.15263836281129
 20
2.140561201283585
 30
0.0
 10
15.15600027573106
 20
2.141753338337521
 30
0.0
 10
15.15956370519685
 20
2.142455934836239
 30
0.0
 10
15.16199375144278
 20
2.142553481173683
 30
0.0
 10
15.16324052861979
 20
2.142603529006077
 30
0.0
  0
SPLINE
  5
169
330
1F
100
AcDbEntity
  8
FORMAT
100
AcDbSpline
210
0.0
220
0.0
230
1.0
 70
     8
 71
     3
 72
    15
 73
    11
 74
     0
 42
0.000000001
 43
0.00000001
 40
0.0
 40
0.0
 40
0.0
 40
0.0
 40
0.1147546677333313
 40
0.2306913969787928
 40
0.3473389763891818
 40
0.4629139966261617
 40
0.5826140764185539
 40
0.7097600249465073
 40
0.8478741677744774
 40
1.0
 40
1.0
 40
1.0
 40
1.0
 10
15.16324052861979
 20
2.142603529006077
 30
0.0
 10
15.16486750194557
 20
2.142524690146525
 30
0.0
 10
15.1681382076762
 20
2.142366200326412
 30
0.0
 10
15.17287535928569
 20
2.140918215269361
 30
0.0
 10
15.17732703826937
 20
2.13873844280495
 30
0.0
 10
15.18116933008113
 20
2.135514223837475
 30
0.0
 10
15.18448812525456
 20
2.131559830593312
 30
0.0
 10
15.18693763089826
 20
2.126657941208487
 30
0.0
 10
15.18875212468853
 20
2.12099893265811
 30
0.0
 10
15.18910792855795
 20
2.116896583622576
 30
0.0
 10
15.18929441892591
 20
2.114746386148933
 30
0.0
  0
SPLINE
  5
16A
330
1F
100
AcDbEntity
  8
FORMAT
100
AcDbSpline
210
0.0
220
0.0
230
1.0
 70
     8
 71
     3
 72
    17
 73
    13
 74
     0
 42
0.000000001
 43
0.00000001
 40
0.0
 40
0.0
 40
0.0
 40
0.0
 40
0.134196423834433
 40
0.2600106235870673
 40
0.3795271562200973
 40
0.4956007132736581
 40
0.6126958023556117
 40
0.7342065909742757
 40
0.796825928428377
 40
0.8625114449058742
 40
0.9297574049765307
 40
1.0
 40
1.0
 40
1.0
 40
1.0
 10
15.21317196994632
 20
2.114746386148933
 30
0.0
 10
15.21269803609892
 20
2.118011187234668
 30
0.0
 10
15.21177977142627
 20
2.124336862255912
 30
0.0
 10
15.20834920265699
 20
2.133054300218506
 30
0.0
 10
15.20385487618804
 20
2.140744174425957
 30
0.0
 10
15.19785093674247
 20
2.147063631186119
 30
0.0
 10
15.19071151282969
 20
2.152108430990596
 30
0.0
 10
15.18392472067538
 20
2.15513857502704
 30
0.0
 10
15.17804330039689
 20
2.156854130967798
 30
0.0
 10
15.17335196580908
 20
2.15786270908971
 30
0.0
 10
15.16839417991416
 20
2.15841647298642
 30
0.0
 10
15.16502434887608
 20
2.158486248300995
 30
0.0
 10
15.16330270974224
 20
2.158521896353015
 30
0.0
  0
SPLINE
  5
16B
330
1F
100
AcDbEntity
  8
FORMAT
100
AcDbSpline
210
0.0
220
0.0
230
1.0
 70
     8
 71
     3
 72
    23
 73
    19
 74
     0
 42
0.000000001
 43
0.00000001
 40
0.0
 40
0.0
 40
0.0
 40
0.0
 40
0.0600481132988865
 40
0.1181478700789265
 40
0.1751697316023334
 40
0.2313271903066817
 40
0.286309886773057
 40
0.3412009235245278
 40
0.3965649848182857
 40
0.4525685168958812
 40
0.5103827999542376
 40
0.5703469969028634
 40
0.6325921225906368
 40
0.6987939446512552
 40
0.7681790678279947
 40
0.8412405971132444
 40
0.9184011859775715
 40
1.0
 40
1.0
 40
1.0
 40
1.0
 10
15.16330270974224
 20
2.158521896353015
 30
0.0
 10
15.16122836785391
 20
2.158450584503987
 30
0.0
 10
15.15714698939824
 20
2.158310274632263
 30
0.0
 10
15.15112401126928
 20
2.15754567154019
 30
0.0
 10
15.14539988715056
 20
2.15599001547918
 30
0.0
 10
15.13991776930062
 20
2.154041951842674
 30
0.0
 10
15.13475751407869
 20
2.151487521919351
 30
0.0
 10
15.13003684182648
 20
2.148254395986015
 30
0.0
 10
15.12557680878762
 20
2.144613014716151
 30
0.0
 10
15.121586461693
 20
2.140318264369387
 30
0.0
 10
15.1179566156568
 20
2.135519500014041
 30
0.0
 10
15.11480227464699
 20
2.130142490273311
 30
0.0
 10
15.11203602998974
 20
2.124237595381159
 30
0.0
 10
15.10975915684109
 20
2.117779553477876
 30
0.0
 10
15.10796024844091
 20
2.110787506732178
 30
0.0
 10
15.10667717935311
 20
2.103301182750102
 30
0.0
 10
15.10583775669399
 20
2.095323498481423
 30
0.0
 10
15.10576195218951
 20
2.089834717365788
 30
0.0
 10
15.10572299035448
 20
2.087013605536687
 30
0.0
  0
SPLINE
  5
16C
330
1F
100
AcDbEntity
  8
FORMAT
100
AcDbSpline
210
0.0
220
0.0
230
1.0
 70
     8
 71
     3
 72
    23
 73
    19
 74
     0
 42
0.000000001
 43
0.00000001
 40
0.0
 40
0.0
 40
0.0
 40
0.0
 40
0.0826471668500618
 40
0.1596674090346407
 40
0.2331857995173605
 40
0.3018653534194099
 40
0.367383058494274
 40
0.4295149670999935
 40
0.4893700957267031
 40
0.5475585023002871
 40
0.6038975944812267
 40
0.6595454618131087
 40
0.7140053522601977
 40
0.7691583608098675
 40
0.8252136752332009
 40
0.8819836654099431
 40
0.9400611076577012
 40
1.0
 40
1.0
 40
1.0
 40
1.0
 10
15.10572299035448
 20
2.087013605536687
 30
0.0
 10
15.10576014019907
 20
2.084150887202557
 30
0.0
 10
15.10583191058949
 20
2.078620354981944
 30
0.0
 10
15.10668498954763
 20
2.070582333905068
 30
0.0
 10
15.1079446374275
 20
2.063091446503648
 30
0.0
 10
15.10975806407479
 20
2.05612155301084
 30
0.0
 10
15.11204996005675
 20
2.049712190201679
 30
0.0
 10
15.11479833886712
 20
2.043820042387498
 30
0.0
 10
15.11797496312588
 20
2.038438493613334
 30
0.0
 10
15.12158199611742
 20
2.033582968577615
 30
0.0
 10
15.12558143724999
 20
2.02923914891542
 30
0.0
 10
15.12999504690942
 20
2.025507392941622
 30
0.0
 10
15.13479700913487
 20
2.022377490525231
 30
0.0
 10
15.13989788458306
 20
2.019723464379199
 30
0.0
 10
15.14539232925337
 20
2.017769825750942
 30
0.0
 10
15.15113948633699
 20
2.016334828158509
 30
0.0
 10
15.15713988699353
 20
2.015441657071477
 30
0.0
 10
15.1612269473405
 20
2.015318924457242
 30
0.0
 10
15.16330270974224
 20
2.015256590230567
 30
0.0
  0
SPLINE
  5
16D
330
1F
100
AcDbEntity
  8
FORMAT
100
AcDbSpline
210
0.0
220
0.0
230
1.0
 70
     8
 71
     3
 72
    15
 73
    11
 74
     0
 42
0.000000001
 43
0.00000001
 40
0.0
 40
0.0
 40
0.0
 40
0.0
 40
0.1416622437967351
 40
0.2778288831355656
 40
0.4074810961346343
 40
0.5368457607469362
 40
0.6613118852260438
 40
0.7771424674696928
 40
0.8887893946983302
 40
1.0
 40
1.0
 40
1.0
 40
1.0
 10
14.70515671697013
 20
2.129219906025635
 30
0.0
 10
14.70462400356003
 20
2.13050425127341
 30
0.0
 10
14.70357924267107
 20
2.13302311724776
 30
0.0
 10
14.70151344757751
 20
2.136466733400559
 30
0.0
 10
14.69900020601365
 20
2.139435030666815
 30
0.0
 10
14.69619287009137
 20
2.14195479022117
 30
0.0
 10
14.69317115202081
 20
2.143981393576885
 30
0.0
 10
14.69003926941219
 20
2.145461756452034
 30
0.0
 10
14.68681069425615
 20
2.146346100984417
 30
0.0
 10
14.68462371616723
 20
2.146467345276887
 30
0.0
 10
14.6835323680118
 20
2.146527848733967
 30
0.0
  0
SPLINE
  5
16E
330
1F
100
AcDbEntity
  8
FORMAT
100
AcDbSpline
210
0.0
220
0.0
230
1.0
 70
     8
 71
     3
 72
    15
 73
    11
 74
     0
 42
0.000000001
 43
0.00000001
 40
0.0
 40
0.0
 40
0.0
 40
0.0
 40
0.083437951459899
 40
0.1762537471389229
 40
0.2797193017848119
 40
0.3961648083450299
 40
0.5253359433478321
 40
0.6680005517049186
 40
0.8267113018158873
 40
1.0
 40
1.0
 40
1.0
 40
1.0
 10
14.46297247217847
 20
2.032777848733966
 30
0.0
 10
14.4638079804155
 20
2.032838905378572
 30
0.0
 10
14.46557290219231
 20
2.032967881009105
 30
0.0
 10
14.4683046213469
 20
2.033673497465286
 30
0.0
 10
14.47119433711698
 20
2.03490561059901
 30
0.0
 10
14.47428199799846
 20
2.036562519496094
 30
0.0
 10
14.47753990127308
 20
2.038700934006927
 30
0.0
 10
14.48098498074339
 20
2.041306332702219
 30
0.0
 10
14.48460005050276
 20
2.044404731879212
 30
0.0
 10
14.48704475452566
 20
2.04666381412799
 30
0.0
 10
14.48832077947013
 20
2.047842952900632
 30
0.0
  0
SPLINE
  5
16F
330
1F
100
AcDbEntity
  8
FORMAT
100
AcDbSpline
210
0.0
220
0.0
230
1.0
 70
     8
 71
     3
 72
    15
 73
    11
 74
     0
 42
0.000000001
 43
0.00000001
 40
0.0
 40
0.0
 40
0.0
 40
0.0
 40
0.1820857919011713
 40
0.3471899464241409
 40
0.4966467116133829
 40
0.6298060343698725
 40
0.7466856441442239
 40
0.8473118757786635
 40
0.9317262772324092
 40
0.9999999999999999
 40
0.9999999999999999
 40
0.9999999999999999
 40
0.9999999999999999
 10
14.48832077947013
 20
2.100486182067301
 30
0.0
 10
14.48679849690923
 20
2.099750297106738
 30
0.0
 10
14.48389590250445
 20
2.098347157095848
 30
0.0
 10
14.4797257928191
 20
2.096377101801835
 30
0.0
 10
14.47601259391472
 20
2.09450655563284
 30
0.0
 10
14.47270917089597
 20
2.092818704978451
 30
0.0
 10
14.46982949291388
 20
2.091298182861626
 30
0.0
 10
14.46737399392494
 20
2.089945267064065
 30
0.0
 10
14.46533424903319
 20
2.088772270910021
 30
0.0
 10
14.46414085701204
 20
2.088006380477103
 30
0.0
 10
14.46360723780347
 20
2.087663916442299
 30
0.0
  0
SPLINE
  5
170
330
1F
100
AcDbEntity
  8
FORMAT
100
AcDbSpline
210
0.0
220
0.0
230
1.0
 70
     8
 71
     3
 72
    15
 73
    11
 74
     0
 42
0.000000001
 43
0.00000001
 40
0.0
 40
0.0
 40
0.0
 40
0.0
 40
0.1562066964829412
 40
0.2975891072699626
 40
0.4281756054834453
 40
0.5475199275914976
 40
0.6604963972311922
 40
0.7724733956428297
 40
0.8844503940544669
 40
1.0
 40
1.0
 40
1.0
 40
1.0
 10
14.46360723780347
 20
2.087663916442299
 30
0.0
 10
14.46202931546563
 20
2.086583427118574
 30
0.0
 10
14.45902321834925
 20
2.084524988776928
 30
0.0
 10
14.45510959735819
 20
2.081032556848402
 30
0.0
 10
14.45178921517854
 20
2.077567043851715
 30
0.0
 10
14.44927778267801
 20
2.073891586606778
 30
0.0
 10
14.44728901702026
 20
2.07016095135016
 30
0.0
 10
14.44603349295743
 20
2.066224788348154
 30
0.0
 10
14.44509712139133
 20
2.062161846937473
 30
0.0
 10
14.4450243852543
 20
2.059373135162655
 30
0.0
 10
14.4449874461368
 20
2.057956885192299
 30
0.0
  0
SPLINE
  5
171
330
1F
100
AcDbEntity
  8
FORMAT
100
AcDbSpline
210
0.0
220
0.0
230
1.0
 70
     8
 71
     3
 72
    15
 73
    11
 74
     0
 42
0.000000001
 43
0.00000001
 40
0.0
 40
0.0
 40
0.0
 40
0.0
 40
0.1528463980216422
 40
0.2936707591272631
 40
0.4295322678485333
 40
0.5609758254221114
 40
0.6847619855370903
 40
0.7956254244912487
 40
0.8974064244552816
 40
1.0
 40
1.0
 40
1.0
 40
1.0
 10
14.4449874461368
 20
2.057956885192299
 30
0.0
 10
14.44504495522709
 20
2.056215903813949
 30
0.0
 10
14.44515545006649
 20
2.052870876848158
 30
0.0
 10
14.44621344269002
 20
2.048074799024959
 30
0.0
 10
14.44787893179714
 20
2.043717889118954
 30
0.0
 10
14.45025284695519
 20
2.039924645332847
 30
0.0
 10
14.45304171484009
 20
2.036801999204897
 30
0.0
 10
14.45611589562792
 20
2.034479800030371
 30
0.0
 10
14.45947303364835
 20
2.033056991369679
 30
0.0
 10
14.46180290487981
 20
2.032871142585416
 30
0.0
 10
14.46297247217847
 20
2.032777848733966
 30
0.0
  0
INSERT
  5
178
330
1F
100
AcDbEntity
  8
FORMAT
100
AcDbBlockReference
  2
SW_NOTE_0
 10
10.8849351664
 20
5.9054455049
 30
0.0
  0
INSERT
  5
183
330
1F
100
AcDbEntity
  8
FORMAT
100
AcDbBlockReference
  2
SW_NOTE_1
 10
2.4751837831
 20
1.068086316
 30
0.0
  0
MTEXT
  5
184
330
1F
100
AcDbEntity
  8
FORMAT
 62
     7
100
AcDbMText
 10
16.2123999058
 20
1.0576202858
 30
0.0
 40
0.25
 41
0.0
 71
     2
 72
     1
  1
A
  7
SLDTEXTSTYLE0
 73
     1
 44
1.0
  0
MTEXT
  5
185
330
1F
100
AcDbEntity
  8
0
  6
Continuous
 62
     7
370
     0
100
AcDbMText
 10
11.3564467586
 20
0.6257720645
 30
0.0
 40
0.0625
 41
0.0
 71
     2
 72
     1
  1
DO NOT SCALE DRAWING
  7
SLDTEXTSTYLE0
 73
     1
 44
1.0
  0
MTEXT
  5
187
330
1F
100
AcDbEntity
  8
0
  6
Continuous
 62
     7
370
     0
100
AcDbMText
 10
14.1630962632
 20
1.1937993586
 30
0.0
 40
0.1
 41
0.0
 71
     1
 72
     1
  1
DWG.  NO.
  7
SLDTEXTSTYLE1
 73
     1
 44
1.0
  0
MTEXT
  5
188
330
1F
100
AcDbEntity
  8
0
  6
Continuous
 62
     7
370
     0
100
AcDbMText
 10
13.3982240634
 20
2.3968067411
 30
0.0
 40
0.065
 41
0.0
 71
     1
 72
     1
  1
DATE
  7
SLDTEXTSTYLE0
 73
     1
 44
1.0
  0
MTEXT
  5
189
330
1F
100
AcDbEntity
  8
0
  6
Continuous
 62
     7
370
     0
100
AcDbMText
 10
10.6881970648
 20
1.210748588
 30
0.0
 40
0.06
 41
0.0
 71
     1
 72
     1
  1
MATERIAL
  7
SLDTEXTSTYLE0
 73
     1
 44
1.0
  0
MTEXT
  5
18A
330
1F
100
AcDbEntity
  8
0
  6
Continuous
 62
     7
370
     0
100
AcDbMText
 10
13.8299212632
 20
1.0521409107
 30
0.0
 40
0.25
 41
0.0
 71
     1
 72
     1
  1
B
  7
SLDTEXTSTYLE0
 73
     1
 44
1.0
  0
MTEXT
  5
18B
330
1F
100
AcDbEntity
  8
0
  6
Continuous
 62
     7
370
     0
100
AcDbMText
 10
12.083750622
 20
2.2081551797
 30
0.0
 40
0.065
 41
0.0
 71
     1
 72
     1
  1
DRAWN BY:
  7
SLDTEXTSTYLE0
 73
     1
 44
1.0
  0
INSERT
  5
191
330
1F
100
AcDbEntity
  8
0
  6
Continuous
 62
     7
370
     0
100
AcDbBlockReference
  2
SW_NOTE_2
 10
10.6932656633
 20
1.3725811239
 30
0.0
  0
MTEXT
  5
192
330
1F
100
AcDbEntity
  8
0
  6
Continuous
 62
     7
370
     0
100
AcDbMText
 10
16.0923972718
 20
1.1898931282
 30
0.0
 40
0.1
 41
0.0
 71
     1
 72
     1
  1
REV
  7
SLDTEXTSTYLE0
 73
     1
 44
1.0
  0
MTEXT
  5
193
330
1F
100
AcDbEntity
  8
0
  6
Continuous
 62
     7
370
     0
100
AcDbMText
 10
12.9064504929
 20
2.3985429566
 30
0.0
 40
0.065
 41
0.0
 71
     1
 72
     1
  1
NAME
  7
SLDTEXTSTYLE0
 73
     1
 44
1.0
  0
MTEXT
  5
194
330
1F
100
AcDbEntity
  8
0
  6
Continuous
 62
     7
370
     0
100
AcDbMText
 10
10.6909330979
 20
0.9424500643
 30
0.0
 40
0.06
 41
0.0
 71
     1
 72
     1
  1
FINISH
  7
SLDTEXTSTYLE0
 73
     1
 44
1.0
  0
MTEXT
  5
195
330
1F
100
AcDbEntity
  8
0
  6
Continuous
 62
     7
370
     0
100
AcDbMText
 10
13.8220311822
 20
1.1951981776
 30
0.0
 40
0.1
 41
0.0
 71
     1
 72
     1
  1
SIZE
  7
SLDTEXTSTYLE0
 73
     1
 44
1.0
  0
MTEXT
  5
196
330
1F
100
AcDbEntity
  8
0
  6
Continuous
 62
     7
370
     0
100
AcDbMText
 10
14.1554468069
 20
0.6547816324
 30
0.0
 40
0.1
 41
0.0
 71
     1
 72
     1
  1
SCALE: 3:1
  7
SLDTEXTSTYLE0
 73
     1
 44
1.0
  0
MTEXT
  5
198
330
1F
100
AcDbEntity
  8
0
  6
Continuous
 62
     7
370
     0
100
AcDbMText
 10
15.4315247461
 20
0.6547816324
 30
0.0
 40
0.1
 41
0.0
 71
     1
 72
     1
  1
SHEET 1 OF 3
  7
SLDTEXTSTYLE2
 73
     1
 44
1.0
  0
INSERT
  5
1A0
330
1F
100
AcDbEntity
  8
FORMAT
100
AcDbBlockReference
  2
SW_NOTE_3
 10
15.3597816951
 20
2.1868229118
 30
0.0
  0
MTEXT
  5
1A1
330
1F
100
AcDbEntity
  8
FORMAT
 62
     7
100
AcDbMText
 10
9.2184715198
 20
1.3505551137
 30
0.0
 40
0.06
 41
0.0
 71
     1
 72
     1
  1
PROPRIETARY AND CONFIDENTIAL
  7
SLDTEXTSTYLE0
 73
     1
 44
1.0
  0
INSERT
  5
1AC
330
1F
100
AcDbEntity
  8
FORMAT
 62
     7
100
AcDbBlockReference
  2
SW_NOTE_4
 10
9.0549402222
 20
1.0731440549
 30
0.0
  0
MTEXT
  5
1AD
330
1F
100
AcDbEntity
  8
FORMAT
 62
     7
100
AcDbMText
 10
10.7148807858
 20
2.4212222426
 30
0.0
 40
0.07
 41
0.0
 71
     1
 72
     1
  1
UNLESS OTHERWISE SPECIFIED:
  7
SLDTEXTSTYLE0
 73
     1
 44
1.0
  0
INSERT
  5
1C3
330
1F
100
AcDbEntity
  8
FORMAT
 62
     7
100
AcDbBlockReference
  2
SW_NOTE_5
 10
10.6932656633
 20
2.2073518865
 30
0.0
  0
INSERT
  5
1CD
330
1F
100
AcDbEntity
  8
FORMAT
100
AcDbBlockReference
  2
SW_NOTE_6
 10
12.0820783569
 20
1.1808001035
 30
0.0
  0
MTEXT
  5
1CE
330
1F
100
AcDbEntity
  8
FORMAT
 62
     7
100
AcDbMText
 10
14.1596383859
 20
0.9852663532
 30
0.0
 40
0.125
 41
0.0
 71
     1
 72
     1
  1
3770-0106-03
  7
SLDTEXTSTYLE0
 73
     1
 44
1.0
  0
MTEXT
  5
1CF
330
1F
100
AcDbEntity
  8
FORMAT
 62
     7
100
AcDbMText
 10
13.7827777048
 20
1.8045988698
 30
0.0
 40
0.1
 41
0.0
 71
     1
 72
     1
  1
TITLE:
  7
SLDTEXTSTYLE0
 73
     1
 44
1.0
  0
MTEXT
  5
1D0
330
1F
100
AcDbEntity
  8
FORMAT
 62
     7
100
AcDbMText
 10
15.1327755307
 20
1.6080728374
 30
0.0
 40
0.09375
 41
0.0
 71
     2
 72
     1
  1
3770-0106-03 MINI ENCODER PACKAGE
  7
SLDTEXTSTYLE0
 73
     1
 44
1.0
  0
MTEXT
  5
1D1
330
1F
100
AcDbEntity
  8
FORMAT
100
AcDbMText
 10
1.4148001036
 20
10.7266465705
 30
0.0
 40
0.125
 41
0.0
 71
     1
 72
     1
  1
8
  7
SLDTEXTSTYLE0
 73
     1
 44
1.0
  0
MTEXT
  5
1D2
330
1F
100
AcDbEntity
  8
FORMAT
100
AcDbMText
 10
3.485781412
 20
10.7266465705
 30
0.0
 40
0.125
 41
0.0
 71
     1
 72
     1
  1
7
  7
SLDTEXTSTYLE0
 73
     1
 44
1.0
  0
MTEXT
  5
1D3
330
1F
100
AcDbEntity
  8
FORMAT
100
AcDbMText
 10
5.4256879541
 20
10.7266465705
 30
0.0
 40
0.125
 41
0.0
 71
     1
 72
     1
  1
6
  7
SLDTEXTSTYLE0
 73
     1
 44
1.0
  0
MTEXT
  5
1D4
330
1F
100
AcDbEntity
  8
FORMAT
100
AcDbMText
 10
7.4704543092
 20
10.7266465705
 30
0.0
 40
0.125
 41
0.0
 71
     1
 72
     1
  1
5
  7
SLDTEXTSTYLE0
 73
     1
 44
1.0
  0
MTEXT
  5
1D5
330
1F
100
AcDbEntity
  8
FORMAT
100
AcDbMText
 10
11.4164135514
 20
10.7266465705
 30
0.0
 40
0.125
 41
0.0
 71
     1
 72
     1
  1
3
  7
SLDTEXTSTYLE0
 73
     1
 44
1.0
  0
MTEXT
  5
1D6
330
1F
100
AcDbEntity
  8
FORMAT
100
AcDbMText
 10
9.4890057111
 20
10.7266465705
 30
0.0
 40
0.125
 41
0.0
 71
     1
 72
     1
  1
4
  7
SLDTEXTSTYLE0
 73
     1
 44
1.0
  0
MTEXT
  5
1D7
330
1F
100
AcDbEntity
  8
FORMAT
100
AcDbMText
 10
13.4952658298
 20
10.7266465705
 30
0.0
 40
0.125
 41
0.0
 71
     1
 72
     1
  1
2
  7
SLDTEXTSTYLE0
 73
     1
 44
1.0
  0
MTEXT
  5
1D8
330
1F
100
AcDbEntity
  8
FORMAT
100
AcDbMText
 10
15.4847394264
 20
10.7266465705
 30
0.0
 40
0.125
 41
0.0
 71
     1
 72
     1
  1
1
  7
SLDTEXTSTYLE0
 73
     1
 44
1.0
  0
MTEXT
  5
1D9
330
1F
100
AcDbEntity
  8
FORMAT
100
AcDbMText
 10
9.5529063801
 20
0.4533562407
 30
0.0
 40
0.125
 41
0.0
 71
     1
 72
     1
  1
4
  7
SLDTEXTSTYLE0
 73
     1
 44
1.0
  0
MTEXT
  5
1DA
330
1F
100
AcDbEntity
  8
FORMAT
100
AcDbMText
 10
7.4899828583
 20
0.4533562407
 30
0.0
 40
0.125
 41
0.0
 71
     1
 72
     1
  1
5
  7
SLDTEXTSTYLE0
 73
     1
 44
1.0
  0
MTEXT
  5
1DB
330
1F
100
AcDbEntity
  8
FORMAT
100
AcDbMText
 10
5.5158156854
 20
0.4533562407
 30
0.0
 40
0.125
 41
0.0
 71
     1
 72
     1
  1
6
  7
SLDTEXTSTYLE0
 73
     1
 44
1.0
  0
MTEXT
  5
1DC
330
1F
100
AcDbEntity
  8
FORMAT
100
AcDbMText
 10
11.5178466063
 20
0.4533562407
 30
0.0
 40
0.125
 41
0.0
 71
     1
 72
     1
  1
3
  7
SLDTEXTSTYLE0
 73
     1
 44
1.0
  0
MTEXT
  5
1DD
330
1F
100
AcDbEntity
  8
FORMAT
100
AcDbMText
 10
13.4556277449
 20
0.4533562407
 30
0.0
 40
0.125
 41
0.0
 71
     1
 72
     1
  1
2
  7
SLDTEXTSTYLE0
 73
     1
 44
1.0
  0
MTEXT
  5
1DE
330
1F
100
AcDbEntity
  8
FORMAT
100
AcDbMText
 10
15.5247081915
 20
0.4533562407
 30
0.0
 40
0.125
 41
0.0
 71
     1
 72
     1
  1
1
  7
SLDTEXTSTYLE0
 73
     1
 44
1.0
  0
MTEXT
  5
1DF
330
1F
100
AcDbEntity
  8
FORMAT
100
AcDbMText
 10
3.5564588427
 20
0.4533562407
 30
0.0
 40
0.125
 41
0.0
 71
     1
 72
     1
  1
7
  7
SLDTEXTSTYLE0
 73
     1
 44
1.0
  0
MTEXT
  5
1E0
330
1F
100
AcDbEntity
  8
FORMAT
100
AcDbMText
 10
1.4601109804
 20
0.4533562407
 30
0.0
 40
0.125
 41
0.0
 71
     1
 72
     1
  1
8
  7
SLDTEXTSTYLE0
 73
     1
 44
1.0
  0
MTEXT
  5
1E1
330
1F
100
AcDbEntity
  8
FORMAT
100
AcDbMText
 10
0.2903950228
 20
1.457834859
 30
0.0
 40
0.125
 41
0.0
 71
     1
 72
     1
  1
A
  7
SLDTEXTSTYLE0
 73
     1
 44
1.0
  0
MTEXT
  5
1E2
330
1F
100
AcDbEntity
  8
FORMAT
100
AcDbMText
 10
0.2903950228
 20
3.1245015256
 30
0.0
 40
0.125
 41
0.0
 71
     1
 72
     1
  1
B
  7
SLDTEXTSTYLE0
 73
     1
 44
1.0
  0
MTEXT
  5
1E3
330
1F
100
AcDbEntity
  8
FORMAT
100
AcDbMText
 10
0.2903950228
 20
4.7911681923
 30
0.0
 40
0.125
 41
0.0
 71
     1
 72
     1
  1
C
  7
SLDTEXTSTYLE0
 73
     1
 44
1.0
  0
MTEXT
  5
1E4
330
1F
100
AcDbEntity
  8
FORMAT
100
AcDbMText
 10
0.2903950228
 20
6.457834859
 30
0.0
 40
0.125
 41
0.0
 71
     1
 72
     1
  1
D
  7
SLDTEXTSTYLE0
 73
     1
 44
1.0
  0
MTEXT
  5
1E5
330
1F
100
AcDbEntity
  8
FORMAT
100
AcDbMText
 10
0.2903950228
 20
8.0401915486
 30
0.0
 40
0.125
 41
0.0
 71
     1
 72
     1
  1
E
  7
SLDTEXTSTYLE0
 73
     1
 44
1.0
  0
MTEXT
  5
1E6
330
1F
100
AcDbEntity
  8
FORMAT
100
AcDbMText
 10
0.2903950228
 20
9.7911681923
 30
0.0
 40
0.125
 41
0.0
 71
     1
 72
     1
  1
F
  7
SLDTEXTSTYLE0
 73
     1
 44
1.0
  0
MTEXT
  5
1E7
330
1F
100
AcDbEntity
  8
FORMAT
100
AcDbMText
 10
16.6528810022
 20
9.7925699157
 30
0.0
 40
0.125
 41
0.0
 71
     1
 72
     1
  1
F
  7
SLDTEXTSTYLE0
 73
     1
 44
1.0
  0
MTEXT
  5
1E8
330
1F
100
AcDbEntity
  8
FORMAT
100
AcDbMText
 10
16.6528810022
 20
8.0139765953
 30
0.0
 40
0.125
 41
0.0
 71
     1
 72
     1
  1
E
  7
SLDTEXTSTYLE0
 73
     1
 44
1.0
  0
MTEXT
  5
1E9
330
1F
100
AcDbEntity
  8
FORMAT
100
AcDbMText
 10
16.6528810022
 20
6.3992509495
 30
0.0
 40
0.125
 41
0.0
 71
     1
 72
     1
  1
D
  7
SLDTEXTSTYLE0
 73
     1
 44
1.0
  0
MTEXT
  5
1EA
330
1F
100
AcDbEntity
  8
FORMAT
100
AcDbMText
 10
16.6528810022
 20
4.6870333729
 30
0.0
 40
0.125
 41
0.0
 71
     1
 72
     1
  1
C
  7
SLDTEXTSTYLE0
 73
     1
 44
1.0
  0
MTEXT
  5
1EB
330
1F
100
AcDbEntity
  8
FORMAT
100
AcDbMText
 10
16.6528810022
 20
3.1263023014
 30
0.0
 40
0.125
 41
0.0
 71
     1
 72
     1
  1
B
  7
SLDTEXTSTYLE0
 73
     1
 44
1.0
  0
MTEXT
  5
1EC
330
1F
100
AcDbEntity
  8
FORMAT
100
AcDbMText
 10
16.6528810022
 20
1.3298386653
 30
0.0
 40
0.125
 41
0.0
 71
     1
 72
     1
  1
A
  7
SLDTEXTSTYLE0
 73
     1
 44
1.0
  0
INSERT
  5
1F4
330
1F
100
AcDbEntity
  8
FORMAT
100
AcDbBlockReference
  2
SW_NOTE_7
 10
9.0454759723
 20
2.0788671413
 30
0.0
  0
MTEXT
  5
1F5
330
1F
100
AcDbEntity
  8
FORMAT
100
AcDbMText
 10
9.0430525129
 20
2.4446150694
 30
0.0
 40
0.1145833333
 41
0.0
 71
     1
 72
     1
  1
GENERAL FINISH NOTE
  7
SLDTEXTSTYLE0
 73
     1
 44
1.0
  0
INSERT
  5
211
330
1F
100
AcDbEntity
  8
FORMAT
100
AcDbBlockReference
  2
SW_TABLEANNOTATION_0
 10
8.499855199
 20
10.5000296393
 30
0.0
  0
SPLINE
  5
212
330
1F
100
AcDbEntity
  8
0
  6
Continuous
 62
     7
370
    18
100
AcDbSpline
210
0.0
220
0.0
230
1.0
 70
     8
 71
     3
 72
    16
 73
    12
 74
     0
 42
0.000000001
 43
0.00000001
 40
0.0
 40
0.0
 40
0.0
 40
0.0
 40
0.210611806449968
 40
0.3953515060703292
 40
0.5526125162924151
 40
0.6823622356388633
 40
0.785808265859271
 40
0.8653016653072767
 40
0.9429349169288337
 40
0.9969652005355615
 40
1.0
 40
1.0
 40
1.0
 40
1.0
 10
5.990407612160051
 20
3.887279353055723
 30
0.0
 10
5.981360600210125
 20
3.926724426510245
 30
0.0
 10
5.964377934992394
 20
4.000769037114756
 30
0.0
 10
5.941591524635204
 20
4.104820343209228
 30
0.0
 10
5.92378485728406
 20
4.1947571786297
 30
0.0
 10
5.910753144732398
 20
4.270215600025129
 30
0.0
 10
5.901813402811224
 20
4.331373491561476
 30
0.0
 10
5.895590664958172
 20
4.382610199451727
 30
0.0
 10
5.892009533903416
 20
4.424518559290325
 30
0.0
 10
5.890152819777849
 20
4.449768622764289
 30
0.0
 10
5.889989259894115
 20
4.460403988630754
 30
0.0
 10
5.889980561554943
 20
4.46096959198921
 30
0.0
  0
LINE
  5
213
330
1F
100
AcDbEntity
  8
0
  6
Continuous
 62
     7
370
    18
100
AcDbLine
 10
5.058326728
 20
7.6641952532
 30
0.0
 11
5.0468115486
 21
7.656213157
 31
0.0
  0
LINE
  5
214
330
1F
100
AcDbEntity
  8
0
  6
Continuous
 62
     7
370
    18
100
AcDbLine
 10
6.2602708391
 20
4.6779192149
 30
0.0
 11
7.3156997589
 21
5.4257845144
 31
0.0
  0
LINE
  5
215
330
1F
100
AcDbEntity
  8
0
  6
Continuous
 62
     7
370
    18
100
AcDbLine
 10
4.7503386647
 20
9.1266411302
 30
0.0
 11
3.6062799676
 21
8.3509797512
 31
0.0
  0
SPLINE
  5
216
330
1F
100
AcDbEntity
  8
0
  6
Continuous
 62
     7
370
    18
100
AcDbSpline
210
0.0
220
0.0
230
1.0
 70
     8
 71
     3
 72
    53
 73
    49
 74
     0
 42
0.000000001
 43
0.00000001
 40
0.0
 40
0.0
 40
0.0
 40
0.0
 40
0.0054818691073387
 40
0.0263898227280705
 40
0.0473042052703472
 40
0.0683462936516586
 40
0.0896239485593083
 40
0.1112104785952227
 40
0.1331355875034353
 40
0.1553841779967227
 40
0.1779049672147414
 40
0.2006267118102114
 40
0.2234758582390169
 40
0.2463894236480566
 40
0.2693165862409009
 40
0.2922239199887835
 40
0.3150975162485533
 40
0.3379316771663471
 40
0.360725983688057
 40
0.3834832038153492
 40
0.4062079172118696
 40
0.4289056635252055
 40
0.4515824449070389
 40
0.4742444569953777
 40
0.4968979622710384
 40
0.5195492489539552
 40
0.5422038741738495
 40
0.5648668716263785
 40
0.5875446991451274
 40
0.6102439143646362
 40
0.6329711550038072
 40
0.655733047685708
 40
0.678535992848774
 40
0.7013857459372533
 40
0.7242866746104593
 40
0.7472405200592604
 40
0.7702444412646658
 40
0.7932881190387324
 40
0.8163458359693477
 40
0.8393675223983669
 40
0.8622899240289288
 40
0.8850329141608059
 40
0.907511025460853
 40
0.9296535691945066
 40
0.9514266915960091
 40
0.9728472947618255
 40
0.99398300571337
 40
0.9999999999999999
 40
0.9999999999999999
 40
0.9999999999999999
 40
0.9999999999999999
 10
7.314362168973084
 20
5.426138991311455
 30
0.0
 10
7.321102229765809
 20
5.430515389890125
 30
0.0
 10
7.353549011331269
 20
5.451583456350143
 30
0.0
 10
7.405386711930739
 20
5.498265014447622
 30
0.0
 10
7.468985092839858
 20
5.565807859367303
 30
0.0
 10
7.524861005811678
 20
5.641971303203096
 30
0.0
 10
7.573489519694654
 20
5.725643733126951
 30
0.0
 10
7.614508770317341
 20
5.816891451619751
 30
0.0
 10
7.647723489439111
 20
5.915409524165725
 30
0.0
 10
7.672864179920144
 20
6.020859397606046
 30
0.0
 10
7.689709415400989
 20
6.132732936126831
 30
0.0
 10
7.698108395927066
 20
6.250398259691838
 30
0.0
 10
7.698008954311077
 20
6.373138575921385
 30
0.0
 10
7.689454884787245
 20
6.500200501166923
 30
0.0
 10
7.672571270762248
 20
6.630834331075977
 30
0.0
 10
7.647542125552459
 20
6.764325003299037
 30
0.0
 10
7.6145880500872
 20
6.90000129405065
 30
0.0
 10
7.573952363327067
 20
7.037225935788665
 30
0.0
 10
7.525898944115291
 20
7.175372832145299
 30
0.0
 10
7.470711088489232
 20
7.313821121294665
 30
0.0
 10
7.408691668632577
 20
7.45195191215627
 30
0.0
 10
7.340163594929446
 20
7.589147296316175
 30
0.0
 10
7.265470055550512
 20
7.724791022744403
 30
0.0
 10
7.184974300515021
 20
7.858270270401511
 30
0.0
 10
7.099058898300007
 20
7.988978073159599
 30
0.0
 10
7.008125494261046
 20
8.116314635683336
 30
0.0
 10
6.912594181134832
 20
8.239689336529018
 30
0.0
 10
6.812899779399738
 20
8.358526354923066
 30
0.0
 10
6.709487950428386
 20
8.472268522091577
 30
0.0
 10
6.602811179739918
 20
8.580379988371986
 30
0.0
 10
6.493327767682396
 20
8.682345262948516
 30
0.0
 10
6.381498984428396
 20
8.777669958839777
 30
0.0
 10
6.267786566766976
 20
8.865880628345916
 30
0.0
 10
6.152651019082071
 20
8.946523518762572
 30
0.0
 10
6.03655142696529
 20
9.019162159446024
 30
0.0
 10
5.919947825776129
 20
9.083373906170808
 30
0.0
 10
5.803307494604454
 20
9.138746088255706
 30
0.0
 10
5.687123477604876
 20
9.18487058926776
 30
0.0
 10
5.571946358934364
 20
9.221344162819458
 30
0.0
 10
5.458395746135178
 20
9.247791067171041
 30
0.0
 10
5.347168772697104
 20
9.263897244209256
 30
0.0
 10
5.239031446495514
 20
9.269445122311978
 30
0.0
 10
5.134777251626153
 20
9.264386850098331
 30
0.0
 10
5.035244591068183
 20
9.248765491715949
 30
0.0
 10
4.940969333052216
 20
9.223108517034856
 30
0.0
 10
4.853149323909334
 20
9.186928415140036
 30
0.0
 10
4.789497557842743
 20
9.15406728077213
 30
0.0
 10
4.757423971913539
 20
9.130493339627417
 30
0.0
 10
4.750316518656302
 20
9.12526939350725
 30
0.0
  0
LINE
  5
217
330
1F
100
AcDbEntity
  8
0
  6
Continuous
 62
     7
370
    18
100
AcDbLine
 10
2.7457833154
 20
5.3501397264
 30
0.0
 11
2.7469290098
 21
5.308591116
 31
0.0
  0
LINE
  5
218
330
1F
100
AcDbEntity
  8
0
  6
Continuous
 62
     7
370
    18
100
AcDbLine
 10
3.0374342407
 20
4.8895007165
 30
0.0
 11
3.0759389418
 21
4.8738486355
 31
0.0
  0
LINE
  5
219
330
1F
100
AcDbEntity
  8
0
  6
Continuous
 62
     7
370
    18
100
AcDbLine
 10
5.609387273
 20
4.3598385282
 30
0.0
 11
5.8030434512
 21
4.494077186
 31
0.0
  0
LINE
  5
21A
330
1F
100
AcDbEntity
  8
0
  6
Continuous
 62
     7
370
    18
100
AcDbLine
 10
3.3470895646
 20
8.0371001195
 30
0.0
 11
3.1534333864
 21
7.9028614616
 31
0.0
  0
LINE
  5
21B
330
1F
100
AcDbEntity
  8
0
  6
Continuous
 62
     7
370
    18
100
AcDbLine
 10
3.609766738
 20
8.3341663662
 30
0.0
 11
3.4556747253
 21
8.2273528105
 31
0.0
  0
LINE
  5
21C
330
1F
100
AcDbEntity
  8
0
  6
Continuous
 62
     7
370
    18
100
AcDbLine
 10
6.0193009118
 20
4.5289990178
 30
0.0
 11
6.1733929245
 21
4.6358125735
 31
0.0
  0
LINE
  5
21D
330
1F
100
AcDbEntity
  8
0
  6
Continuous
 62
     7
370
    18
100
AcDbLine
 10
1.8726965977
 20
7.8781126181
 30
0.0
 11
1.3521154737
 21
7.517256011
 31
0.0
  0
LINE
  5
21E
330
1F
100
AcDbEntity
  8
0
  6
Continuous
 62
     7
370
    18
100
AcDbLine
 10
4.6162257122
 20
2.8083657117
 30
0.0
 11
5.1368068362
 21
3.1692223188
 31
0.0
  0
LINE
  5
21F
330
1F
100
AcDbEntity
  8
0
  6
Continuous
 62
     7
370
    18
100
AcDbLine
 10
1.5251233015
 20
7.2721178622
 30
0.0
 11
1.523040977
 21
7.2706744358
 31
0.0
  0
LINE
  5
220
330
1F
100
AcDbEntity
  8
0
  6
Continuous
 62
     7
370
    18
100
AcDbLine
 10
4.4453002089
 20
3.0549472869
 30
0.0
 11
4.4473825334
 21
3.0563907133
 31
0.0
  0
SPLINE
  5
221
330
1F
100
AcDbEntity
  8
0
  6
Continuous
 62
     7
370
    18
100
AcDbSpline
210
0.0
220
0.0
230
1.0
 70
     8
 71
     3
 72
    49
 73
    45
 74
     0
 42
0.000000001
 43
0.00000001
 40
0.0
 40
0.0
 40
0.0
 40
0.0
 40
0.015551041327367
 40
0.0405432037701135
 40
0.0653856452956407
 40
0.0900977363515277
 40
0.1147118843672509
 40
0.1392608841681541
 40
0.1637718864462442
 40
0.1882648864077205
 40
0.212753283455983
 40
0.2372433020746282
 40
0.2617408346826422
 40
0.2862489263581862
 40
0.3107687395653176
 40
0.3353002426987214
 40
0.359842677527585
 40
0.3843948649412773
 40
0.408955397972003
 40
0.4335227586992584
 40
0.4580953849405505
 40
0.4826717044661906
 40
0.5072501486608251
 40
0.5318291536169777
 40
0.556406774358313
 40
0.5809812923980033
 40
0.6055511082181213
 40
0.6301145976387047
 40
0.654670118281822
 40
0.6792160324979886
 40
0.7037507567341795
 40
0.7282728523457758
 40
0.7527811799916052
 40
0.7772751494204396
 40
0.8017551083614967
 40
0.8262229261960987
 40
0.8506828335115759
 40
0.8751411166020486
 40
0.8996071097786791
 40
0.924097618333814
 40
0.948636563727965
 40
0.9732548798946664
 40
0.9979873447250371
 40
1.0
 40
1.0
 40
1.0
 40
1.0
 10
1.895381464769665
 20
7.128113166469414
 30
0.0
 10
1.911987883747032
 20
7.133554033929022
 30
0.0
 10
1.955282568284125
 20
7.147738948846126
 30
0.0
 10
2.031418617160624
 20
7.160204848508153
 30
0.0
 10
2.122481702719576
 20
7.166512345577871
 30
0.0
 10
2.218019868719193
 20
7.163006173129396
 30
0.0
 10
2.31730383063917
 20
7.150221498437347
 30
0.0
 10
2.419984984005419
 20
7.128090461376451
 30
0.0
 10
2.52559039697374
 20
7.096734403957841
 30
0.0
 10
2.633646093742349
 20
7.056263640003047
 30
0.0
 10
2.743640333354268
 20
7.006842548055226
 30
0.0
 10
2.855042633995653
 20
6.948678078359703
 30
0.0
 10
2.967307464461314
 20
6.88202485429816
 30
0.0
 10
3.079883884439467
 20
6.807180972392721
 30
0.0
 10
3.192215332592971
 20
6.724489588316893
 30
0.0
 10
3.303744578070452
 20
6.63433671349448
 30
0.0
 10
3.413917923444666
 20
6.537148638555362
 30
0.0
 10
3.522188851520176
 20
6.433389106363069
 30
0.0
 10
3.628021230672513
 20
6.323556395397643
 30
0.0
 10
3.730892198888312
 20
6.208180363895393
 30
0.0
 10
3.830294811950104
 20
6.08781947934473
 30
0.0
 10
3.925740517425448
 20
5.963057837011091
 30
0.0
 10
4.016761495333808
 20
5.834502165117616
 30
0.0
 10
4.102912449146853
 20
5.702779489544251
 30
0.0
 10
4.183773159574665
 20
5.568533740611263
 30
0.0
 10
4.258950783196955
 20
5.432422408187144
 30
0.0
 10
4.328082190230855
 20
5.295112680555028
 30
0.0
 10
4.390835572012254
 20
5.157278703866668
 30
0.0
 10
4.446912179943237
 20
5.019598636999965
 30
0.0
 10
4.496048173701526
 20
4.882751370115368
 30
0.0
 10
4.538016427997451
 20
4.747413123357396
 30
0.0
 10
4.572628285716551
 20
4.614253873028737
 30
0.0
 10
4.599735244005117
 20
4.483933498564364
 30
0.0
 10
4.619230442649915
 20
4.357097610333586
 30
0.0
 10
4.631050030935516
 20
4.234372619019943
 30
0.0
 10
4.635173317574969
 20
4.116360971322669
 30
0.0
 10
4.631624404415682
 20
4.003634611151885
 30
0.0
 10
4.620464069029029
 20
3.896739453419075
 30
0.0
 10
4.601813305775909
 20
3.796149861032124
 30
0.0
 10
4.575745606228669
 20
3.702390110698265
 30
0.0
 10
4.542646562861131
 20
3.615538694136832
 30
0.0
 10
4.501800009062542
 20
3.537063477762045
 30
0.0
 10
4.470533548398161
 20
3.485785174389895
 30
0.0
 10
4.451110084367842
 20
3.463174030977283
 30
0.0
 10
4.449648406978291
 20
3.461472470584838
 30
0.0
  0
LINE
  5
222
330
1F
100
AcDbEntity
  8
0
  6
Continuous
 62
     7
370
    18
100
AcDbLine
 10
2.6550697276
 20
5.9588261759
 30
0.0
 11
2.5361178368
 21
5.6127830117
 31
0.0
  0
LINE
  5
223
330
1F
100
AcDbEntity
  8
0
  6
Continuous
 62
     7
370
    18
100
AcDbLine
 10
3.2483111652
 20
4.5853543985
 30
0.0
 11
3.6140907239
 21
4.5753175514
 31
0.0
  0
SPLINE
  5
224
330
1F
100
AcDbEntity
  8
0
  6
Continuous
 62
     7
370
    18
100
AcDbSpline
210
0.0
220
0.0
230
1.0
 70
     8
 71
     3
 72
    16
 73
    12
 74
     0
 42
0.000000001
 43
0.00000001
 40
0.0
 40
0.0
 40
0.0
 40
0.0
 40
0.1108052868446833
 40
0.2275478003701954
 40
0.3452420417662225
 40
0.4630545059817492
 40
0.5806325511293051
 40
0.6979247427565711
 40
0.8149740170856212
 40
0.9318581403860718
 40
1.0
 40
1.0
 40
1.0
 40
1.0
 10
2.526420151640563
 20
5.578283667415728
 30
0.0
 10
2.522823217148781
 20
5.5593165229335
 30
0.0
 10
2.515436615344953
 20
5.520365926539269
 30
0.0
 10
2.514751828747342
 20
5.455111485304557
 30
0.0
 10
2.521664984528515
 20
5.384990305448866
 30
0.0
 10
2.53686369166619
 20
5.311531275567881
 30
0.0
 10
2.559758373164895
 20
5.236195129059047
 30
0.0
 10
2.589915885035922
 20
5.160141498329861
 30
0.0
 10
2.626860720892627
 20
5.084618201977893
 30
0.0
 10
2.663714938858781
 20
5.020800990530356
 30
0.0
 10
2.68896261750516
 20
4.983154420060309
 30
0.0
 10
2.698260899545339
 20
4.969289841261648
 30
0.0
  0
SPLINE
  5
225
330
1F
100
AcDbEntity
  8
0
  6
Continuous
 62
     7
370
    18
100
AcDbSpline
210
0.0
220
0.0
230
1.0
 70
     8
 71
     3
 72
    17
 73
    13
 74
     0
 42
0.000000001
 43
0.00000001
 40
0.0
 40
0.0
 40
0.0
 40
0.0
 40
0.0589859721832669
 40
0.1706789157304511
 40
0.2825122001763388
 40
0.3945222494431777
 40
0.5068050809355015
 40
0.6194544744862477
 40
0.7325415726115597
 40
0.846060786963011
 40
0.9597519629705721
 40
1.0
 40
1.0
 40
1.0
 40
1.0
 10
2.698260899545346
 20
4.969289841261646
 30
0.0
 10
2.706968012421576
 20
4.95694157157036
 30
0.0
 10
2.73216248713907
 20
4.9212112240988
 30
0.0
 10
2.77744136391396
 20
4.864996641290276
 30
0.0
 10
2.834661797926746
 20
4.803151000679681
 30
0.0
 10
2.894869412703285
 20
4.747333022796338
 30
0.0
 10
2.957107914588984
 20
4.698379387540791
 30
0.0
 10
3.020526651457325
 20
4.657186328253172
 30
0.0
 10
3.084329561711358
 20
4.624259849369598
 30
0.0
 10
3.147431873096187
 20
4.601211998506971
 30
0.0
 10
3.19638092133713
 20
4.588734453107759
 30
0.0
 10
3.223117028261018
 20
4.587789775947586
 30
0.0
 10
3.230107292796392
 20
4.587542786239288
 30
0.0
  0
LWPOLYLINE
  5
226
330
1F
100
AcDbEntity
  8
0
  6
Continuous
 62
     7
370
    18
100
AcDbPolyline
 90
       14
 70
   128
 43
0.0
 10
5.4349355289
 20
3.529378225
 10
5.4804063276
 20
3.5133691884
 10
5.5460504276
 20
3.5004831804
 10
5.6143421194
 20
3.4980859914
 10
5.6829558113
 20
3.5062592548
 10
5.7495549464
 20
3.5247246399
 10
5.811871571
 20
3.5528533302
 10
5.8677835671
 20
3.5896874369
 10
5.9153869189
 20
3.6339726186
 10
5.9530605513
 20
3.6842007966
 10
5.9795215338
 20
3.7386615105
 10
5.9938687695
 20
3.7955001661
 10
5.9956136805
 20
3.8527811911
 10
5.9904056652
 20
3.8872881101
  0
ARC
  5
227
330
1F
100
AcDbEntity
  8
0
  6
Continuous
 62
     7
370
    18
100
AcDbCircle
 10
5.2204493975
 20
7.4925044661
 30
0.0
 40
0.1300776410088904
100
AcDbArc
 50
238.5546078738
 51
262.0828186078
  0
LWPOLYLINE
  5
228
330
1F
100
AcDbEntity
  8
0
  6
Continuous
 62
     7
370
    18
100
AcDbPolyline
 90
        8
 70
   128
 43
0.0
 10
5.059587665
 20
7.4764860367
 10
5.0419904096
 20
7.5093552031
 10
5.0271372292
 20
7.5503196686
 10
5.0210316127
 20
7.5886233205
 10
5.0241263859
 20
7.621425352
 10
5.0361920234
 20
7.6462929865
 10
5.0563336723
 20
7.6613819054
 10
5.0633705454
 20
7.663719141
  0
LINE
  5
229
330
1F
100
AcDbEntity
  8
0
  6
Continuous
 62
     7
370
    18
100
AcDbLine
 10
5.1678090493
 20
7.4968282315
 30
0.0
 11
5.1934079686
 21
7.5008429353
 31
0.0
  0
LINE
  5
22A
330
1F
100
AcDbEntity
  8
0
  6
Continuous
 62
     7
370
    18
100
AcDbLine
 10
5.1934079686
 20
7.5008429353
 30
0.0
 11
5.173556561
 21
7.5400870327
 31
0.0
  0
LINE
  5
22B
330
1F
100
AcDbEntity
  8
0
  6
Continuous
 62
     7
370
    18
100
AcDbLine
 10
5.173556561
 20
7.5400870327
 30
0.0
 11
5.1479576416
 21
7.536072329
 31
0.0
  0
LINE
  5
22C
330
1F
100
AcDbEntity
  8
0
  6
Continuous
 62
     7
370
    18
100
AcDbLine
 10
5.1479576416
 20
7.536072329
 30
0.0
 11
5.128106234
 21
7.5753164264
 31
0.0
  0
LINE
  5
22D
330
1F
100
AcDbEntity
  8
0
  6
Continuous
 62
     7
370
    18
100
AcDbLine
 10
5.128106234
 20
7.5753164264
 30
0.0
 11
5.1025073147
 21
7.5713017226
 31
0.0
  0
LINE
  5
22E
330
1F
100
AcDbEntity
  8
0
  6
Continuous
 62
     7
370
    18
100
AcDbLine
 10
5.1025073147
 20
7.5713017226
 30
0.0
 11
5.1223587223
 21
7.5320576252
 31
0.0
  0
LINE
  5
22F
330
1F
100
AcDbEntity
  8
0
  6
Continuous
 62
     7
370
    18
100
AcDbLine
 10
5.1223587223
 20
7.5320576252
 30
0.0
 11
5.096759803
 21
7.5280429214
 31
0.0
  0
LINE
  5
230
330
1F
100
AcDbEntity
  8
0
  6
Continuous
 62
     7
370
    18
100
AcDbLine
 10
5.096759803
 20
7.5280429214
 30
0.0
 11
5.1166112106
 21
7.4887988239
 31
0.0
  0
LINE
  5
231
330
1F
100
AcDbEntity
  8
0
  6
Continuous
 62
     7
370
    18
100
AcDbLine
 10
5.1166112106
 20
7.4887988239
 30
0.0
 11
5.1422101299
 21
7.4928135277
 31
0.0
  0
LINE
  5
232
330
1F
100
AcDbEntity
  8
0
  6
Continuous
 62
     7
370
    18
100
AcDbLine
 10
5.1422101299
 20
7.4928135277
 30
0.0
 11
5.1620615376
 21
7.4535694302
 31
0.0
  0
LINE
  5
233
330
1F
100
AcDbEntity
  8
0
  6
Continuous
 62
     7
370
    18
100
AcDbLine
 10
5.1620615376
 20
7.4535694302
 30
0.0
 11
5.1876604569
 21
7.457584134
 31
0.0
  0
LINE
  5
234
330
1F
100
AcDbEntity
  8
0
  6
Continuous
 62
     7
370
    18
100
AcDbLine
 10
5.1876604569
 20
7.457584134
 30
0.0
 11
5.1678090493
 21
7.4968282315
 31
0.0
  0
LINE
  5
235
330
1F
100
AcDbEntity
  8
0
  6
Continuous
 62
     7
370
    18
100
AcDbLine
 10
5.1734449974
 20
7.5144649241
 30
0.0
 11
5.1785871659
 21
7.5042994101
 31
0.0
  0
LINE
  5
236
330
1F
100
AcDbEntity
  8
0
  6
Continuous
 62
     7
370
    18
100
AcDbLine
 10
5.147846078
 20
7.5104502203
 30
0.0
 11
5.1734449974
 21
7.5144649241
 31
0.0
  0
LINE
  5
237
330
1F
100
AcDbEntity
  8
0
  6
Continuous
 62
     7
370
    18
100
AcDbLine
 10
5.1331368389
 20
7.5395288038
 30
0.0
 11
5.147846078
 21
7.5104502203
 31
0.0
  0
LINE
  5
238
330
1F
100
AcDbEntity
  8
0
  6
Continuous
 62
     7
370
    18
100
AcDbLine
 10
5.1882658001
 20
7.5110084492
 30
0.0
 11
5.1678090493
 21
7.4968282315
 31
0.0
  0
LINE
  5
239
330
1F
100
AcDbEntity
  8
0
  6
Continuous
 62
     7
370
    18
100
AcDbLine
 10
5.1428154732
 20
7.5462378429
 30
0.0
 11
5.1223587223
 21
7.5320576252
 31
0.0
  0
LINE
  5
23A
330
1F
100
AcDbEntity
  8
0
  6
Continuous
 62
     7
370
    18
100
AcDbLine
 10
5.1825182884
 20
7.467749648
 30
0.0
 11
5.1620615376
 21
7.4535694302
 31
0.0
  0
LINE
  5
23B
330
1F
100
AcDbEntity
  8
0
  6
Continuous
 62
     7
370
    18
100
AcDbLine
 10
5.1734449974
 20
7.5144649241
 30
0.0
 11
5.1422101299
 21
7.4928135277
 31
0.0
  0
LINE
  5
23C
330
1F
100
AcDbEntity
  8
0
  6
Continuous
 62
     7
370
    18
100
AcDbLine
 10
5.147846078
 20
7.5104502203
 30
0.0
 11
5.1166112106
 21
7.4887988239
 31
0.0
  0
LINE
  5
23D
330
1F
100
AcDbEntity
  8
0
  6
Continuous
 62
     7
370
    18
100
AcDbLine
 10
6.1776218415
 20
4.6281158274
 30
0.0
 11
6.10527529
 21
4.5768465046
 31
0.0
  0
ARC
  5
23E
330
1F
100
AcDbEntity
  8
0
  6
Continuous
 62
     7
370
    18
100
AcDbCircle
 10
5.8813544101
 20
5.2129659962
 30
0.0
 40
0.6556097244689478
100
AcDbArc
 50
296.8653964585
 51
318.0610986107
  0
LINE
  5
23F
330
1F
100
AcDbEntity
  8
0
  6
Continuous
 62
     7
370
    18
100
AcDbLine
 10
6.2966883609
 20
4.7235279405
 30
0.0
 11
6.3690349124
 21
4.7747972633
 31
0.0
  0
LWPOLYLINE
  5
240
330
1F
100
AcDbEntity
  8
0
  6
Continuous
 62
     7
370
    18
100
AcDbPolyline
 90
       26
 70
   128
 43
0.0
 10
6.2966883609
 20
4.7235279405
 10
6.3553972785
 20
4.7981248762
 10
6.405695527
 20
4.882414045
 10
6.4472941074
 20
4.9759111459
 10
6.4799540062
 20
5.0780789717
 10
6.5034875692
 20
5.1883304958
 10
6.5177595795
 20
5.306032245
 10
6.5226880341
 20
5.4305079394
 10
6.5182446156
 20
5.5610423778
 10
6.5044548547
 20
5.6968855473
 10
6.4813979832
 20
5.8372569326
 10
6.4492064792
 20
5.9813500006
 10
6.4080653058
 20
6.1283368344
 10
6.3582108482
 20
6.2773728905
 10
6.2999295555
 20
6.427601851
 10
6.2335562951
 20
6.5781605441
 10
6.1594724285
 20
6.7281839033
 10
6.07810362
 20
6.8768099381
 10
5.9899173911
 20
7.0231846864
 10
5.8954204341
 20
7.1664671217
 10
5.7951557012
 20
7.3058339847
 10
5.6896992843
 20
7.4404845139
 10
5.5796571052
 20
7.5696450467
 10
5.4656614344
 20
7.6925734642
 10
5.3483672577
 20
7.8085634555
 10
5.2284485134
 20
7.9169485758
  0
LINE
  5
241
330
1F
100
AcDbEntity
  8
0
  6
Continuous
 62
     7
370
    18
100
AcDbLine
 10
5.3012580469
 20
7.9668338496
 30
0.0
 11
5.2284485134
 21
7.9169485758
 31
0.0
  0
ARC
  5
242
330
1F
100
AcDbEntity
  8
0
  6
Continuous
 62
     7
370
    18
100
AcDbCircle
 10
3.3015326921
 20
5.6600129146
 30
0.0
 40
3.052920621434741
100
AcDbArc
 50
49.0788014979
 51
56.6647974368
  0
LINE
  5
243
330
1F
100
AcDbEntity
  8
0
  6
Continuous
 62
     7
370
    18
100
AcDbLine
 10
4.9064136624
 20
8.1607508772
 30
0.0
 11
4.9792231959
 21
8.210636151
 31
0.0
  0
LWPOLYLINE
  5
244
330
1F
100
AcDbEntity
  8
0
  6
Continuous
 62
     7
370
    18
100
AcDbPolyline
 90
       15
 70
   128
 43
0.0
 10
4.9064136624
 20
8.1607508772
 10
4.782826005
 20
8.2367166772
 10
4.6598632155
 20
8.3026175624
 10
4.5382318022
 20
8.3580748855
 10
4.4186306238
 20
8.4027700049
 10
4.301746874
 20
8.4364461154
 10
4.1882521327
 20
8.4589097239
 10
4.0787985077
 20
8.470031761
 10
3.9740148876
 20
8.4697483228
 10
3.8745033288
 20
8.4580610377
 10
3.7808355955
 20
8.4350370576
 10
3.6935498754
 20
8.4008086715
 10
3.6131476867
 20
8.3555725458
 10
3.5400909972
 20
8.2995885941
 10
3.4920715447
 20
8.2525823706
  0
LINE
  5
245
330
1F
100
AcDbEntity
  8
0
  6
Continuous
 62
     7
370
    18
100
AcDbLine
 10
6.0556977312
 20
4.5542285779
 30
0.0
 11
6.10527529
 21
4.5768465046
 31
0.0
  0
LINE
  5
246
330
1F
100
AcDbEntity
  8
0
  6
Continuous
 62
     7
370
    18
100
AcDbLine
 10
5.2272069459
 20
7.9059778136
 30
0.0
 11
5.2284485134
 21
7.9169485758
 31
0.0
  0
LINE
  5
247
330
1F
100
AcDbEntity
  8
0
  6
Continuous
 62
     7
370
    18
100
AcDbLine
 10
6.2966883609
 20
4.7235279405
 30
0.0
 11
6.2874435541
 21
4.7364822452
 31
0.0
  0
LINE
  5
248
330
1F
100
AcDbEntity
  8
0
  6
Continuous
 62
     7
370
    18
100
AcDbLine
 10
4.9721014596
 20
8.1477069273
 30
0.0
 11
4.9563002692
 21
8.1368808346
 31
0.0
  0
ARC
  5
249
330
1F
100
AcDbEntity
  8
0
  6
Continuous
 62
     7
370
    18
100
AcDbCircle
 10
3.3845909115
 20
5.7178116492
 30
0.0
 40
2.902512842816051
100
AcDbArc
 50
49.8503781043
 51
56.8424237112
  0
LINE
  5
24A
330
1F
100
AcDbEntity
  8
0
  6
Continuous
 62
     7
370
    18
100
AcDbLine
 10
4.9792231959
 20
8.210636151
 30
0.0
 11
4.9721014596
 21
8.1477069273
 31
0.0
  0
LINE
  5
24B
330
1F
100
AcDbEntity
  8
0
  6
Continuous
 62
     7
370
    18
100
AcDbLine
 10
4.9064136624
 20
8.1607508772
 30
0.0
 11
4.9051720949
 21
8.149780115
 31
0.0
  0
SPLINE
  5
24C
330
1F
100
AcDbEntity
  8
0
  6
Continuous
 62
     7
370
    18
100
AcDbSpline
210
0.0
220
0.0
230
1.0
 70
     8
 71
     3
 72
     9
 73
     5
 74
     0
 42
0.000000001
 43
0.00000001
 40
0.0
 40
0.0
 40
0.0
 40
0.0
 40
0.5419917945281623
 40
1.0
 40
1.0
 40
1.0
 40
1.0
 10
4.956300269183899
 20
8.13688083461704
 30
0.0
 10
4.954933534342527
 20
8.134072805061923
 30
0.0
 10
4.952411845167201
 20
8.128891860288459
 30
0.0
 10
4.948681710760162
 20
8.123965459880367
 30
0.0
 10
4.946973278594221
 20
8.121709128070025
 30
0.0
  0
LINE
  5
24D
330
1F
100
AcDbEntity
  8
0
  6
Continuous
 62
     7
370
    18
100
AcDbLine
 10
6.0996660075
 20
4.5847065232
 30
0.0
 11
6.10527529
 21
4.5768465046
 31
0.0
  0
LINE
  5
24E
330
1F
100
AcDbEntity
  8
0
  6
Continuous
 62
     7
370
    18
100
AcDbLine
 10
6.1725473649
 20
4.6352264482
 30
0.0
 11
6.1776218415
 21
4.6281158274
 31
0.0
  0
ARC
  5
24F
330
1F
100
AcDbEntity
  8
0
  6
Continuous
 62
     7
370
    18
100
AcDbCircle
 10
3.1518585783
 20
5.0278033459
 30
0.0
 40
0.1716561798639992
100
AcDbArc
 50
243.7507258568
 51
290.8926313196
  0
ARC
  5
250
330
1F
100
AcDbEntity
  8
0
  6
Continuous
 62
     7
370
    18
100
AcDbCircle
 10
2.9154112107
 20
5.3675893727
 30
0.0
 40
0.170523057228543
100
AcDbArc
 50
138.3990355428
 51
185.8733654666
  0
LWPOLYLINE
  5
251
330
1F
100
AcDbEntity
  8
0
  6
Continuous
 62
     7
370
    18
100
AcDbPolyline
 90
       33
 70
   128
 43
0.0
 10
3.1711478522
 20
4.8912617006
 10
3.1960746685
 20
4.9157912676
 10
3.21285813
 20
4.9498136592
 10
3.2208532576
 20
4.9920214137
 10
3.2197528032
 20
5.040792511
 10
3.2095990566
 20
5.094252705
 10
3.1907822206
 20
5.1503475505
 10
3.1640254155
 20
5.2069213541
 10
3.1303568905
 20
5.2618000162
 10
3.0910705081
 20
5.3128745805
 10
3.0476760218
 20
5.3581822803
 10
3.0018410576
 20
5.395981966
 10
2.9553270273
 20
5.424821017
 10
2.9099214391
 20
5.4435911646
 10
2.8673692042
 20
5.4515710826
 10
2.8293055811
 20
5.4484541072
 10
2.7971933337
 20
5.4343600221
 10
2.7722665174
 20
5.409830455
 10
2.7554830559
 20
5.3758080635
 10
2.7474879282
 20
5.3336003089
 10
2.7485883826
 20
5.2848292117
 10
2.7587421293
 20
5.2313690176
 10
2.7775589653
 20
5.1752741721
 10
2.8043157704
 20
5.1187003686
 10
2.8379842954
 20
5.0638217065
 10
2.8772706778
 20
5.0127471421
 10
2.920665164
 20
4.9674394423
 10
2.9665001283
 20
4.9296397566
 10
3.0130141586
 20
4.9008007057
 10
3.0584197468
 20
4.8820305581
 10
3.1009719817
 20
4.8740506401
 10
3.1390356047
 20
4.8771676155
 10
3.1711478522
 20
4.8912617006
  0
LWPOLYLINE
  5
252
330
1F
100
AcDbEntity
  8
0
  6
Continuous
 62
     7
370
    18
100
AcDbPolyline
 90
       44
 70
   128
 43
0.0
 10
5.5629845755
 20
4.3306284992
 10
5.6346773947
 20
4.3783351052
 10
5.7002806123
 20
4.4367014738
 10
5.7583294603
 20
4.5047746356
 10
5.8084914403
 20
4.5821646737
 10
5.8504792289
 20
4.6684283051
 10
5.8840523239
 20
4.7630714194
 10
5.9090184216
 20
4.8655519096
 10
5.9252345185
 20
4.9752827765
 10
5.9326077303
 20
5.0916354917
 10
5.9310958238
 20
5.2139435975
 10
5.9207074591
 20
5.341506524
 10
5.9015021399
 20
5.4735936024
 10
5.8735898725
 20
5.6094482499
 10
5.8371305358
 20
5.7482923033
 10
5.7923329655
 20
5.8893304764
 10
5.7394537582
 20
6.0317549155
 10
5.6787958011
 20
6.1747498261
 10
5.6107065375
 20
6.3174961464
 10
5.5355759766
 20
6.4591762385
 10
5.4538344593
 20
6.5989785715
 10
5.3659501938
 20
6.7361023703
 10
5.2724265731
 20
6.8697622023
 10
5.173799292
 20
6.9991924761
 10
5.0706332787
 20
7.1236518267
 10
4.9635194588
 20
7.2424273623
 10
4.8530713704
 20
7.3548387474
 10
4.7399216504
 20
7.4602420996
 10
4.62471841
 20
7.5580336783
 10
4.5081215229
 20
7.647653342
 10
4.3907988456
 20
7.7285877574
 10
4.2734223918
 20
7.8003733396
 10
4.156664483
 20
7.8625989072
 10
4.0411938981
 20
7.9149080379
 10
3.9276720422
 20
7.9570011095
 10
3.816749158
 20
7.988637017
 10
3.7090606019
 20
8.0096345525
 10
3.6052232042
 20
8.0198734442
 10
3.505831736
 20
8.0192950446
 10
3.4114555027
 20
8.0079026667
 10
3.3226350828
 20
7.9857615651
 10
3.2398792317
 20
7.9529985619
 10
3.1636619673
 20
7.9098013207
 10
3.1097981769
 20
7.8696589824
  0
LWPOLYLINE
  5
253
330
1F
100
AcDbEntity
  8
0
  6
Continuous
 62
     7
370
    18
100
AcDbPolyline
 90
       34
 70
   128
 43
0.0
 10
4.2062612992
 20
8.0606381492
 10
4.3213063368
 20
8.0108572028
 10
4.4378048898
 20
7.9510795161
 10
4.5550896649
 20
7.8816474905
 10
4.6724888655
 20
7.8029588262
 10
4.7893300397
 20
7.7154642447
 10
4.9049439318
 20
7.6196649072
 10
5.0186683159
 20
7.5161095434
 10
5.129851789
 20
7.4053913093
 10
5.2378575022
 20
7.2881443888
 10
5.3420668087
 20
7.1650403616
 10
5.4418828068
 20
7.0367843565
 10
5.5367337598
 20
6.9041110122
 10
5.6260763697
 20
6.7677802697
 10
5.7093988904
 20
6.6285730191
 10
5.7862240579
 20
6.4872866269
 10
5.8561118247
 20
6.3447303688
 10
5.9186618799
 20
6.2017207941
 10
5.9735159424
 20
6.0590770487
 10
6.0203598133
 20
5.9176161831
 10
6.058925175
 20
5.7781484722
 10
6.0889911286
 20
5.6414727746
 10
6.1103854591
 20
5.5083719562
 10
6.1229856217
 20
5.3796084065
 10
6.1267194437
 20
5.2559196714
 10
6.1215655383
 20
5.1380142288
 10
6.1075534265
 20
5.0265674303
 10
6.0847633683
 20
4.9222176333
 10
6.0533259033
 20
4.8255625438
 10
6.0134211024
 20
4.7371557934
 10
5.9652775365
 20
4.657503768
 10
5.9091709678
 20
4.5870627072
 10
5.8454227696
 20
4.526236091
 10
5.8030434512
 20
4.494077186
  0
ARC
  5
254
330
1F
100
AcDbEntity
  8
0
  6
Continuous
 62
     7
370
    18
100
AcDbCircle
 10
3.7988847254
 20
7.2381981703
 30
0.0
 40
0.9178034602520146
100
AcDbArc
 50
63.6495520794
 51
119.4890346659
  0
LWPOLYLINE
  5
255
330
1F
100
AcDbEntity
  8
0
  6
Continuous
 62
     7
370
    18
100
AcDbPolyline
 90
       24
 70
   128
 43
0.0
 10
5.5416083517
 20
4.544557528
 10
5.5851174187
 20
4.5847235679
 10
5.6405545868
 20
4.650185216
 10
5.6880411583
 20
4.7249993617
 10
5.7272772894
 20
4.8086936072
 10
5.758015232
 20
4.900739483
 10
5.7800608978
 20
5.0005557853
 10
5.7932750842
 20
5.1075122453
 10
5.7975743532
 20
5.2209335095
 10
5.7929315578
 20
5.3401034035
 10
5.7793760141
 20
5.4642694545
 10
5.7569933156
 20
5.5926476428
 10
5.725924793
 20
5.7244273516
 10
5.6863666219
 20
5.8587764862
 10
5.6385685839
 20
5.9948467279
 10
5.5828324895
 20
6.1317788902
 10
5.5195102722
 20
6.2687083443
 10
5.4490017667
 20
6.4047704786
 10
5.3717521838
 20
6.5391061578
 10
5.2882492994
 20
6.6708671481
 10
5.1990203747
 20
6.7992214729
 10
5.1046288264
 20
6.9233586663
 10
5.00567067
 20
7.0424948907
 10
4.9027707554
 20
7.1558778858
  0
LWPOLYLINE
  5
256
330
1F
100
AcDbEntity
  8
0
  6
Continuous
 62
     7
370
    18
100
AcDbPolyline
 90
       11
 70
   128
 43
0.0
 10
4.9027707554
 20
7.1558778858
 10
4.9005548463
 20
7.1951388171
 10
4.8885626009
 20
7.2386865936
 10
4.8676797084
 20
7.2833049861
 10
4.839448479
 20
7.3256986948
 10
4.8059539354
 20
7.3627367242
 10
4.7696698235
 20
7.3916836239
 10
4.7332759132
 20
7.4104015149
 10
4.6994600836
 20
7.417507984
 10
4.6707198092
 20
7.4124781814
 10
4.6491777083
 20
7.3956835844
  0
LWPOLYLINE
  5
257
330
1F
100
AcDbEntity
  8
0
  6
Continuous
 62
     7
370
    18
100
AcDbPolyline
 90
       15
 70
   128
 43
0.0
 10
4.6491777083
 20
7.3956835844
 10
4.5379174132
 20
7.4848173352
 10
4.4256688876
 20
7.5654049066
 10
4.3131409009
 20
7.6369374454
 10
4.2010439868
 20
7.6989632749
 10
4.0900859574
 20
7.7510907462
 10
3.9809674333
 20
7.7929907115
 10
3.87437742
 20
7.8243986025
 10
3.7709889575
 20
7.8451161009
 10
3.6714548699
 20
7.8550123903
 10
3.5764036439
 20
7.8540249828
 10
3.4864354602
 20
7.8421601132
 10
3.4021184036
 20
7.8194926997
 10
3.323984876
 20
7.7861658707
 10
3.3026235888
 20
7.7745751623
  0
LWPOLYLINE
  5
258
330
1F
100
AcDbEntity
  8
0
  6
Continuous
 62
     7
370
    18
100
AcDbPolyline
 90
       21
 70
   128
 43
0.0
 10
4.6293918071
 20
6.6295059945
 10
4.6410191238
 20
6.5933616031
 10
4.6606459039
 20
6.5571768223
 10
4.6863509412
 20
6.5244936708
 10
4.7156180477
 20
6.4985114029
 10
4.7455823551
 20
6.4817733443
 10
4.7733107481
 20
6.4759179326
 10
4.7960889785
 20
6.4815183364
 10
4.8116873543
 20
6.4980263491
 10
4.8185789979
 20
6.5238260514
 10
4.8160893072
 20
6.5563919887
 10
4.8044619905
 20
6.5925363801
 10
4.7848352104
 20
6.6287211609
 10
4.7591301731
 20
6.6614043125
 10
4.7298630666
 20
6.6873865803
 10
4.6998987593
 20
6.7041246389
 10
4.6721703662
 20
6.7099800506
 10
4.6493921359
 20
6.7043796468
 10
4.63379376
 20
6.6878716341
 10
4.6269021164
 20
6.6620719318
 10
4.6293918071
 20
6.6295059945
  0
ARC
  5
259
330
1F
100
AcDbEntity
  8
0
  6
Continuous
 62
     7
370
    18
100
AcDbCircle
 10
3.1092511096
 20
5.818601904
 30
0.0
 40
1.876937778824641
100
AcDbArc
 50
47.6233044824
 51
77.7500814647
  0
LWPOLYLINE
  5
25A
330
1F
100
AcDbEntity
  8
0
  6
Continuous
 62
     7
370
    18
100
AcDbPolyline
 90
       14
 70
   128
 43
0.0
 10
4.6279039219
 20
6.9653455973
 10
4.6201328429
 20
6.9331679674
 10
4.6029260435
 20
6.9106244176
 10
4.577563787
 20
6.8993922897
 10
4.5459331395
 20
6.9003073045
 10
4.5103875636
 20
6.9133013808
 10
4.4735718102
 20
6.9374077007
 10
4.4382251371
 20
6.9708326457
 10
4.406977496
 20
7.0110892491
 10
4.3821538521
 20
7.0551822385
 10
4.3656011962
 20
7.099830897
 10
4.3585511204
 20
7.1417131632
 10
4.3615281823
 20
7.177712808
 10
4.3743108749
 20
7.2051512958
  0
LWPOLYLINE
  5
25B
330
1F
100
AcDbEntity
  8
0
  6
Continuous
 62
     7
370
    18
100
AcDbPolyline
 90
       19
 70
   128
 43
0.0
 10
5.4994682543
 20
4.7791288555
 10
5.5051940643
 20
4.8100234967
 10
5.5184082508
 20
4.9169799568
 10
5.5227075197
 20
5.0304012209
 10
5.5180647244
 20
5.1495711149
 10
5.5045091807
 20
5.273737166
 10
5.4821264821
 20
5.4021153542
 10
5.4510579596
 20
5.533895063
 10
5.4114997885
 20
5.6682441976
 10
5.3637017505
 20
5.8043144393
 10
5.307965656
 20
5.9412466016
 10
5.2446434388
 20
6.0781760558
 10
5.1741349332
 20
6.21423819
 10
5.0968853503
 20
6.3485738692
 10
5.0133824659
 20
6.4803348595
 10
4.9241535412
 20
6.6086891843
 10
4.829761993
 20
6.7328263777
 10
4.7308038365
 20
6.8519626021
 10
4.6279039219
 20
6.9653455973
  0
LWPOLYLINE
  5
25C
330
1F
100
AcDbEntity
  8
0
  6
Continuous
 62
     7
370
    18
100
AcDbPolyline
 90
       19
 70
   128
 43
0.0
 10
5.2588482442
 20
7.4027038051
 10
5.3617481588
 20
7.28932081
 10
5.4607063153
 20
7.1701845856
 10
5.5550978635
 20
7.0460473921
 10
5.6443267882
 20
6.9176930673
 10
5.7278296726
 20
6.7859320771
 10
5.8050792555
 20
6.6515963979
 10
5.875587761
 20
6.5155342636
 10
5.9389099783
 20
6.3786048095
 10
5.9946460728
 20
6.2416726472
 10
6.0424441108
 20
6.1056024055
 10
6.0820022818
 20
5.9712532708
 10
6.1130708044
 20
5.839473562
 10
6.1354535029
 20
5.7110953738
 10
6.1490090467
 20
5.5869293228
 10
6.153651842
 20
5.4677594288
 10
6.149352573
 20
5.3543381646
 10
6.1361383866
 20
5.2473817046
 10
6.1250281426
 20
5.1912465837
  0
LWPOLYLINE
  5
25D
330
1F
100
AcDbEntity
  8
0
  6
Continuous
 62
     7
370
    18
100
AcDbPolyline
 90
       11
 70
   128
 43
0.0
 10
5.2588482442
 20
7.4027038051
 10
5.2566323352
 20
7.4419647364
 10
5.2446400897
 20
7.4855125129
 10
5.2237571972
 20
7.5301309054
 10
5.1955259678
 20
7.572524614
 10
5.1620314243
 20
7.6095626435
 10
5.1257473123
 20
7.6385095431
 10
5.089353402
 20
7.6572274342
 10
5.0555375724
 20
7.6643339032
 10
5.026797298
 20
7.6593041007
 10
5.0052551972
 20
7.6425095036
  0
ARC
  5
25E
330
1F
100
AcDbEntity
  8
0
  6
Continuous
 62
     7
370
    18
100
AcDbCircle
 10
3.7650111191
 20
6.2987295304
 30
0.0
 40
1.828647038028855
100
AcDbArc
 50
47.2944826449
 51
79.0325948342
  0
LWPOLYLINE
  5
25F
330
1F
100
AcDbEntity
  8
0
  6
Continuous
 62
     7
370
    18
100
AcDbPolyline
 90
       52
 70
   128
 43
0.0
 10
3.2255650533
 20
7.9528617158
 10
3.2499737295
 20
7.9990424406
 10
3.3013683414
 20
8.0776250056
 10
3.3606065399
 20
8.146925769
 10
3.4273647865
 20
8.206566234
 10
3.5012784708
 20
8.2562206651
 10
3.5819439018
 20
8.2956178671
 10
3.668920513
 20
8.324542666
 10
3.7617332683
 20
8.3428370846
 10
3.8598752566
 20
8.3504012052
 10
3.9628104604
 20
8.3471937152
 10
4.0699766832
 20
8.3332321328
 10
4.1807886204
 20
8.3085927113
 10
4.2946410556
 20
8.2734100226
 10
4.4109121662
 20
8.2278762225
 10
4.5289669198
 20
8.1722400006
 10
4.6481605422
 20
8.1068052229
 10
4.7678420393
 20
8.0319292713
 10
4.8873577521
 20
7.9480210924
 10
5.0060549273
 20
7.8555389635
 10
5.1232852821
 20
7.7549879899
 10
5.2384085449
 20
7.6469173462
 10
5.3507959524
 20
7.5319172767
 10
5.4598336836
 20
7.4106158721
 10
5.5649262121
 20
7.2836756383
 10
5.6654995591
 20
7.1517898791
 10
5.7610044278
 20
7.0156789087
 10
5.8509192036
 20
6.876086118
 10
5.9347528034
 20
6.7337739145
 10
6.012047357
 20
6.5895195579
 10
6.0823807083
 20
6.4441109157
 10
6.1453687211
 20
6.2983421593
 10
6.2006673766
 20
6.1530094273
 10
6.2479746527
 20
6.0089064765
 10
6.2870321735
 20
5.8668203473
 10
6.3176266204
 20
5.7275270649
 10
6.3395908972
 20
5.5917874009
 10
6.3528050424
 20
5.4603427183
 10
6.3571968852
 20
5.3339109223
 10
6.3527424386
 20
5.2131825395
 10
6.3394660315
 20
5.0988169466
 10
6.3174401749
 20
4.9914387687
 10
6.2867851664
 20
4.8916344682
 10
6.2476684331
 20
4.7999491417
 10
6.2003036169
 20
4.7168835424
 10
6.1449494081
 20
4.642891346
 10
6.0819081321
 20
4.5783766722
 10
6.0115240986
 20
4.5236918777
 10
5.9341817208
 20
4.4791356319
 10
5.8503034158
 20
4.4449512857
 10
5.7603472979
 20
4.4213255419
 10
5.6815189399
 20
4.4098387824
  0
LWPOLYLINE
  5
260
330
1F
100
AcDbEntity
  8
0
  6
Continuous
 62
     7
370
    18
100
AcDbPolyline
 90
       14
 70
   128
 43
0.0
 10
6.4648733721
 20
5.8688602071
 10
6.4890082921
 20
5.7321618074
 10
6.5044186118
 20
5.5995750915
 10
6.5110201654
 20
5.4718242018
 10
6.5087768975
 20
5.3496068694
 10
6.49770106
 20
5.2335906031
 10
6.4778531453
 20
5.1244090435
 10
6.4493415558
 20
5.0226585024
 10
6.412322012
 20
4.9288947059
 10
6.3669967017
 20
4.8436297593
 10
6.3136131761
 20
4.7673293504
 10
6.2524629975
 20
4.7004102054
 10
6.183880147
 20
4.6432378135
 10
6.1733929245
 20
4.6358125735
  0
LWPOLYLINE
  5
261
330
1F
100
AcDbEntity
  8
0
  6
Continuous
 62
     7
370
    18
100
AcDbPolyline
 90
       32
 70
   128
 43
0.0
 10
3.609766738
 20
8.3341663662
 10
3.6362426691
 20
8.3515725818
 10
3.7152600657
 20
8.3935564744
 10
3.800702113
 20
8.4251164358
 10
3.8921021561
 20
8.4460800965
 10
3.9889609997
 20
8.4563329603
 10
4.0907496343
 20
8.4558190296
 10
4.1969121257
 20
8.4445411112
 10
4.3068686513
 20
8.4225608013
 10
4.4200186666
 20
8.3899981486
 10
4.5357441854
 20
8.3470309991
 10
4.6534131551
 20
8.2938940246
 10
4.7723829087
 20
8.2308774406
 10
4.8920036744
 20
8.1583254219
 10
5.0116221253
 20
8.0766342226
 10
5.1305849469
 20
7.9862500115
 10
5.2482424053
 20
7.887666436
 10
5.3639518965
 20
7.7814219252
 10
5.4770814552
 20
7.66809675
 10
5.5870132071
 20
7.5483098531
 10
5.6931467431
 20
7.422715469
 10
5.7949023985
 20
7.2919995506
 10
5.8917244194
 20
7.156876023
 10
5.9830839973
 20
7.0180828841
 10
6.068482158
 20
6.8763781738
 10
6.1474524862
 20
6.7325358341
 10
6.2195636736
 20
6.587341482
 10
6.2844218737
 20
6.4415881188
 10
6.3416728535
 20
6.2960717986
 10
6.3910039281
 20
6.1515872813
 10
6.4321456683
 20
6.0089236911
 10
6.4648733721
 20
5.8688602071
  0
LINE
  5
262
330
1F
100
AcDbEntity
  8
0
  6
Continuous
 62
     7
370
    18
100
AcDbLine
 10
4.9027707554
 20
7.1558778858
 30
0.0
 11
4.6279039219
 21
6.9653455973
 31
0.0
  0
LINE
  5
263
330
1F
100
AcDbEntity
  8
0
  6
Continuous
 62
     7
370
    18
100
AcDbLine
 10
5.1597207979
 20
7.9627011231
 30
0.0
 11
5.2249227446
 21
7.9099860003
 31
0.0
  0
ARC
  5
264
330
1F
100
AcDbEntity
  8
0
  6
Continuous
 62
     7
370
    18
100
AcDbCircle
 10
3.3886248013
 20
5.7274125268
 30
0.0
 40
2.874074436578285
100
AcDbArc
 50
49.9310767641
 51
56.9596917373
  0
LINE
  5
265
330
1F
100
AcDbEntity
  8
0
  6
Continuous
 62
     7
370
    18
100
AcDbLine
 10
5.1823339808
 20
7.349665621
 30
0.0
 11
5.2588482442
 21
7.4027038051
 31
0.0
  0
LINE
  5
266
330
1F
100
AcDbEntity
  8
0
  6
Continuous
 62
     7
370
    18
100
AcDbLine
 10
4.3743108749
 20
7.2051512958
 30
0.0
 11
4.6491777083
 21
7.3956835844
 31
0.0
  0
LINE
  5
267
330
1F
100
AcDbEntity
  8
0
  6
Continuous
 62
     7
370
    18
100
AcDbLine
 10
5.0052551972
 20
7.6425095036
 30
0.0
 11
4.9346240652
 21
7.5935493907
 31
0.0
  0
LWPOLYLINE
  5
268
330
1F
100
AcDbEntity
  8
0
  6
Continuous
 62
     7
370
    18
100
AcDbPolyline
 90
       92
 70
   128
 43
0.0
 10
1.8469640282
 20
4.3927584105
 10
1.7493242703
 20
4.5403318062
 10
1.6575691175
 20
4.690871598
 10
1.5721358249
 20
4.8436603954
 10
1.493431521
 20
4.9979700901
 10
1.4218312676
 20
5.1530653261
 10
1.3576762726
 20
5.308207004
 10
1.3012722637
 20
5.4626558031
 10
1.2528880318
 20
5.6156757045
 10
1.2127541497
 20
5.7665374987
 10
1.1810618737
 20
5.9145222605
 10
1.1579622318
 20
6.0589247752
 10
1.1435653044
 20
6.199056899
 10
1.1379396994
 20
6.3342508385
 10
1.1411122254
 20
6.463862333
 10
1.1530677639
 20
6.5872737248
 10
1.1737493412
 20
6.7038969024
 10
1.2030584002
 20
6.8131761032
 10
1.2408552699
 20
6.914590562
 10
1.2869598311
 20
7.0076569928
 10
1.3411523744
 20
7.0919318916
 10
1.4031746478
 20
7.1670136502
 10
1.4727310869
 20
7.2325444698
 10
1.5494902235
 20
7.2882120662
 10
1.6330862654
 20
7.333751158
 10
1.7231208394
 20
7.3689447306
 10
1.8191648897
 20
7.3936250706
 10
1.9207607228
 20
7.4076745651
 10
2.0274241882
 20
7.4110262617
 10
2.1386469859
 20
7.403664188
 10
2.2538990886
 20
7.3856234278
 10
2.3726312677
 20
7.3569899535
 10
2.4942777101
 20
7.3179002165
 10
2.6182587151
 20
7.2685404974
 10
2.7439834569
 20
7.2091460176
 10
2.8708527998
 20
7.1399998189
 10
2.9982621536
 20
7.0614314144
 10
3.1256043547
 20
6.9738152183
 10
3.2522725595
 20
6.8775687617
 10
3.3776631364
 20
6.7731507029
 10
3.501178542
 20
6.6610586413
 10
3.6222301694
 20
6.5418267468
 10
3.7402411523
 20
6.4160232136
 10
3.8546491146
 20
6.2842475528
 10
3.9649088504
 20
6.1471277355
 10
4.0704949218
 20
6.0053172001
 10
4.1709041631
 20
5.8594917382
 10
4.2656580784
 20
5.7103462747
 10
4.3543051223
 20
5.5585915556
 10
4.4364228512
 20
5.4049507613
 10
4.5116199367
 20
5.2501560601
 10
4.5795380305
 20
5.0949451192
 10
4.639853472
 20
4.9400575895
 10
4.6922788305
 20
4.7862315806
 10
4.7365642755
 20
4.6342001434
 10
4.7724987664
 20
4.484687777
 10
4.7999110593
 20
4.338406976
 10
4.8186705219
 20
4.1960548349
 10
4.828687757
 20
4.0583097265
 10
4.8299150277
 20
3.925828069
 10
4.8223464857
 20
3.7992411979
 10
4.8060181985
 20
3.6791523571
 10
4.7810079777
 20
3.5661338248
 10
4.7474350086
 20
3.4607241857
 10
4.7054592815
 20
3.3634257647
 10
4.6552808299
 20
3.2747022331
 10
4.5971387771
 20
3.194976399
 10
4.5313101963
 20
3.1246281923
 10
4.4581087907
 20
3.0639928541
 10
4.3778833984
 20
3.0133593396
 10
4.2910163299
 20
2.9729689404
 10
4.1979215463
 20
2.9430141352
 10
4.0990426867
 20
2.9236376723
 10
3.9948509538
 20
2.9149318894
 10
3.8858428688
 20
2.9169382734
 10
3.7725379047
 20
2.9296472631
 10
3.6554760114
 20
2.9529982943
 10
3.5352150421
 20
2.9868800887
 10
3.412328095
 20
3.0311311842
 10
3.2874007824
 20
3.0855407041
 10
3.1610284399
 20
3.1498493623
 10
3.0338132892
 20
3.2237506987
 10
2.9063615685
 20
3.3068925399
 10
2.7792806432
 20
3.398878677
 10
2.6531761118
 20
3.4992707543
 10
2.5286489198
 20
3.6075903577
 10
2.4062924961
 20
3.7233212951
 10
2.2866899246
 20
3.8459120558
 10
2.1704111662
 20
3.9747784391
 10
2.058010342
 20
4.1093063379
 10
1.9500230932
 20
4.2488546654
 10
1.8469640282
 20
4.3927584105
  0
LWPOLYLINE
  5
269
330
1F
100
AcDbEntity
  8
0
  6
Continuous
 62
     7
370
    18
100
AcDbPolyline
 90
       97
 70
   128
 43
0.0
 10
1.713946469
 20
4.3026863861
 10
1.6104082705
 20
4.4588474341
 10
1.5127527333
 20
4.6180229616
 10
1.4213980332
 20
4.7795313545
 10
1.3367353652
 20
4.9426810091
 10
1.2591272677
 20
5.1067732935
 10
1.1889060705
 20
5.2711055394
 10
1.1263724717
 20
5.4349740509
 10
1.0717942496
 20
5.5976771178
 10
1.0254051166
 20
5.7585180206
 10
0.9874037181
 20
5.9168080139
 10
0.957952782
 20
6.0718692757
 10
0.9371784215
 20
6.2230378097
 10
0.9251695958
 20
6.3696662892
 10
0.9219777285
 20
6.5111268285
 10
0.9276164876
 20
6.6468136718
 10
0.9420617271
 20
6.7761457873
 10
0.9652515903
 20
6.8985693549
 10
0.9970867746
 20
7.0135601381
 10
1.0374309569
 20
7.1206257289
 10
1.0861113771
 20
7.2193076558
 10
1.1429195783
 20
7.3091833477
 10
1.2076122991
 20
7.389867943
 10
1.2799125152
 20
7.4610159381
 10
1.359510626
 20
7.5223226662
 10
1.4460657803
 20
7.5735256025
 10
1.5392073354
 20
7.6144054882
 10
1.6385364451
 20
7.6447872694
 10
1.7436277668
 20
7.6645408465
 10
1.8540312833
 20
7.6735816317
 10
1.9692742299
 20
7.671870911
 10
2.0888631184
 20
7.65941601
 10
2.2122858511
 20
7.6362702625
 10
2.3390139127
 20
7.6025327821
 10
2.4685046342
 20
7.5583480379
 10
2.6002035166
 20
7.5039052357
 10
2.7335466049
 20
7.439437508
 10
2.8679629036
 20
7.3652209154
 10
3.0028768215
 20
7.2815732649
 10
3.1377106364
 20
7.1888527486
 10
3.2718869693
 20
7.0874564098
 10
3.4048312566
 20
6.9778184432
 10
3.5359742102
 20
6.8604083356
 10
3.6647542561
 20
6.735728855
 10
3.7906199382
 20
6.604313898
 10
3.9130322804
 20
6.4667262038
 10
4.0314670943
 20
6.3235549438
 10
4.1454172238
 20
6.1754131995
 10
4.2543947169
 20
6.0229353366
 10
4.3579329153
 20
5.8667742886
 10
4.4555884526
 20
5.7075987611
 10
4.5469431527
 20
5.5460903681
 10
4.6316058207
 20
5.3829407135
 10
4.7092139182
 20
5.2188484291
 10
4.7794351154
 20
5.0545161832
 10
4.8419687142
 20
4.8906476718
 10
4.8965469363
 20
4.7279446049
 10
4.9429360692
 20
4.567103702
 10
4.9809374677
 20
4.4088137087
 10
5.0103884039
 20
4.253752447
 10
5.0311627644
 20
4.1025839129
 10
5.0431715901
 20
3.9559554334
 10
5.0463634574
 20
3.8144948941
 10
5.0407246983
 20
3.6788080508
 10
5.0262794588
 20
3.5494759354
 10
5.0030895956
 20
3.4270523678
 10
4.9712544113
 20
3.3120615845
 10
4.930910229
 20
3.2049959938
 10
4.8822298088
 20
3.1063140669
 10
4.8254216075
 20
3.016438375
 10
4.7607288868
 20
2.9357537796
 10
4.6884286707
 20
2.8646057845
 10
4.6088305599
 20
2.8032990564
 10
4.5222754056
 20
2.7520961201
 10
4.4291338505
 20
2.7112162344
 10
4.3298047408
 20
2.6808344533
 10
4.2247134191
 20
2.6610808762
 10
4.1143099026
 20
2.652040091
 10
3.999066956
 20
2.6537508116
 10
3.8794780675
 20
2.6662057126
 10
3.7560553348
 20
2.6893514601
 10
3.6293272732
 20
2.7230889406
 10
3.4998365517
 20
2.7672736848
 10
3.3681376693
 20
2.821716487
 10
3.234794581
 20
2.8861842147
 10
3.1003782823
 20
2.9604008072
 10
2.9654643644
 20
3.0440484577
 10
2.8306305494
 20
3.1367689741
 10
2.6964542165
 20
3.2381653129
 10
2.5635099293
 20
3.3478032794
 10
2.4323669757
 20
3.465213387
 10
2.3035869298
 20
3.5898928677
 10
2.1777212477
 20
3.7213078246
 10
2.0553089054
 20
3.8588955189
 10
1.9368740916
 20
4.0020667788
 10
1.8229239621
 20
4.1502085231
 10
1.713946469
 20
4.3026863861
  0
LWPOLYLINE
  5
26A
330
1F
100
AcDbEntity
  8
0
  6
Continuous
 62
     7
370
    18
100
AcDbPolyline
 90
       50
 70
   128
 43
0.0
 10
1.8726965977
 20
7.8781126181
 10
1.88009175
 20
7.8831792734
 10
1.9666469042
 20
7.9343822097
 10
2.0597884594
 20
7.9752620954
 10
2.1591175691
 20
8.0056438765
 10
2.2642088908
 20
8.0253974536
 10
2.3746124073
 20
8.0344382388
 10
2.4898553538
 20
8.0327275182
 10
2.6094442424
 20
8.0202726172
 10
2.7328669751
 20
7.9971268697
 10
2.8595950367
 20
7.9633893892
 10
2.9890857582
 20
7.919204645
 10
3.1207846406
 20
7.8647618428
 10
3.2541277289
 20
7.8002941151
 10
3.3885440276
 20
7.7260775226
 10
3.5234579455
 20
7.6424298721
 10
3.6582917604
 20
7.5497093557
 10
3.7924680933
 20
7.4483130169
 10
3.9254123805
 20
7.3386750504
 10
4.0565553342
 20
7.2212649428
 10
4.1853353801
 20
7.0965854621
 10
4.3112010622
 20
6.9651705052
 10
4.4336134044
 20
6.8275828109
 10
4.5520482183
 20
6.684411551
 10
4.6659983478
 20
6.5362698067
 10
4.7749758409
 20
6.3837919437
 10
4.8785140393
 20
6.2276308957
 10
4.9761695766
 20
6.0684553682
 10
5.0675242767
 20
5.9069469753
 10
5.1521869447
 20
5.7437973207
 10
5.2297950422
 20
5.5797050363
 10
5.3000162393
 20
5.4153727904
 10
5.3625498382
 20
5.2515042789
 10
5.4171280603
 20
5.088801212
 10
5.4635171932
 20
4.9279603092
 10
5.5015185917
 20
4.7696703159
 10
5.5309695279
 20
4.6146090541
 10
5.5517438884
 20
4.46344052
 10
5.5637527141
 20
4.3168120406
 10
5.5669445814
 20
4.1753515013
 10
5.5613058223
 20
4.039664658
 10
5.5468605828
 20
3.9103325425
 10
5.5236707196
 20
3.7879089749
 10
5.4918355353
 20
3.6729181917
 10
5.451491353
 20
3.5658526009
 10
5.4028109328
 20
3.467170674
 10
5.3460027315
 20
3.3772949821
 10
5.2813100108
 20
3.2966103867
 10
5.2090097947
 20
3.2254623917
 10
5.1368068362
 20
3.1692223188
  0
LWPOLYLINE
  5
26B
330
1F
100
AcDbEntity
  8
0
  6
Continuous
 62
     7
370
    18
100
AcDbPolyline
 90
       24
 70
   128
 43
0.0
 10
1.8490463527
 20
4.3942018369
 10
1.7514065948
 20
4.5417752326
 10
1.659651442
 20
4.6923150245
 10
1.5742181494
 20
4.8451038218
 10
1.4955138455
 20
4.9994135165
 10
1.4239135921
 20
5.1545087525
 10
1.3597585971
 20
5.3096504304
 10
1.3033545882
 20
5.4640992295
 10
1.2549703563
 20
5.6171191309
 10
1.2148364742
 20
5.7679809251
 10
1.1831441982
 20
5.9159656869
 10
1.1600445563
 20
6.0603682016
 10
1.1456476289
 20
6.2005003254
 10
1.1400220239
 20
6.3356942649
 10
1.1431945499
 20
6.4653057595
 10
1.1551500884
 20
6.5887171513
 10
1.1758316657
 20
6.7053403288
 10
1.2051407247
 20
6.8146195296
 10
1.2429375944
 20
6.9160339884
 10
1.2890421556
 20
7.0091004192
 10
1.3432346989
 20
7.093375318
 10
1.4052569723
 20
7.1684570766
 10
1.4748134114
 20
7.2339878962
 10
1.5251062106
 20
7.2721425179
  0
LWPOLYLINE
  5
26C
330
1F
100
AcDbEntity
  8
0
  6
Continuous
 62
     7
370
    18
100
AcDbPolyline
 90
       24
 70
   128
 43
0.0
 10
4.4473996243
 20
3.0563660576
 10
4.3799657229
 20
3.014802766
 10
4.2930986544
 20
2.9744123668
 10
4.2000038708
 20
2.9444575616
 10
4.1011250112
 20
2.9250810987
 10
3.9969332783
 20
2.9163753158
 10
3.8879251933
 20
2.9183816998
 10
3.7746202292
 20
2.9310906895
 10
3.6575583359
 20
2.9544417207
 10
3.5372973666
 20
2.9883235152
 10
3.4144104195
 20
3.0325746106
 10
3.2894831069
 20
3.0869841305
 10
3.1631107644
 20
3.1512927887
 10
3.0358956137
 20
3.2251941251
 10
2.908443893
 20
3.3083359663
 10
2.7813629677
 20
3.4003221034
 10
2.6552584363
 20
3.5007141807
 10
2.5307312443
 20
3.6090337841
 10
2.4083748206
 20
3.7247647215
 10
2.2887722491
 20
3.8473554823
 10
2.1724934907
 20
3.9762218655
 10
2.0600926665
 20
4.1107497643
 10
1.9521054177
 20
4.2502980919
 10
1.8490463527
 20
4.3942018369
  0
LWPOLYLINE
  5
26D
330
1F
100
AcDbEntity
  8
0
  6
Continuous
 62
     7
370
    18
100
AcDbPolyline
 90
       92
 70
   128
 43
0.0
 10
1.8469773299
 20
4.3927674177
 10
1.7493387141
 20
4.5403390872
 10
1.6575846346
 20
4.6908771182
 10
1.5721523413
 20
4.8436641284
 10
1.4934489579
 20
4.9979720182
 10
1.4218495421
 20
5.1530654401
 10
1.3576952975
 20
5.3082053033
 10
1.3012919484
 20
5.4626522958
 10
1.2529082824
 20
5.6156704074
 10
1.2127748697
 20
5.766530437
 10
1.1810829644
 20
5.9145134678
 10
1.1579835927
 20
6.0589142934
 10
1.1435868337
 20
6.1990447781
 10
1.1379612945
 20
6.3342371363
 10
1.1411337834
 20
6.4638471148
 10
1.153089182
 20
6.5872570631
 10
1.1737705174
 20
6.7038788765
 10
1.2030792336
 20
6.813156799
 10
1.2408756613
 20
6.9145700716
 10
1.2869796831
 20
7.0076354138
 10
1.3411715926
 20
7.0919093269
 10
1.4031931405
 20
7.1669902073
 10
1.472748766
 20
7.2325202604
 10
1.5495070047
 20
7.2881872057
 10
1.6331020688
 20
7.3337257648
 10
1.7231355897
 20
7.3689189257
 10
1.8191785167
 20
7.3935989771
 10
1.9207731614
 20
7.4076483072
 10
2.0274353791
 20
7.4109999646
 10
2.1386568759
 20
7.4036379771
 10
2.2539076305
 20
7.3855974279
 10
2.3726384207
 20
7.3569642885
 10
2.4942834403
 20
7.3178750088
 10
2.6182629952
 20
7.268515867
 10
2.7439862664
 20
7.2091220819
 10
2.8708541253
 20
7.139976692
 10
2.9982619888
 20
7.0614092064
 10
3.1256027004
 20
6.9737940352
 10
3.2522694236
 20
6.8775487044
 10
3.3776585337
 20
6.7731318669
 10
3.5011724946
 20
6.6610411165
 10
3.6222227061
 20
6.5418106167
 10
3.7402323086
 20
6.416008555
 10
3.8546389328
 20
6.2842344355
 10
3.9648973789
 20
6.1471162221
 10
4.0704822152
 20
6.0053073454
 10
4.170890282
 20
5.8594835892
 10
4.265643089
 20
5.7103398703
 10
4.354289096
 20
5.5585869262
 10
4.4364058644
 20
5.404947929
 10
4.5116020704
 20
5.2501550384
 10
4.5795193697
 20
5.094945913
 10
4.6398341057
 20
4.940060195
 10
4.692258851
 20
4.7862359853
 10
4.7365437779
 20
4.6342063265
 10
4.7724778486
 20
4.4846957089
 10
4.7998898208
 20
4.3384166189
 10
4.818649064
 20
4.1960661429
 10
4.8286661819
 20
4.0583226457
 10
4.8298934383
 20
3.9258425378
 10
4.8223249848
 20
3.7992571474
 10
4.8059968886
 20
3.6791697113
 10
4.7809869604
 20
3.5661525009
 10
4.7474143839
 20
3.4607440948
 10
4.7054391478
 20
3.3634468119
 10
4.6552612832
 20
3.2747243181
 10
4.5971199104
 20
3.1949994165
 10
4.5312920996
 20
3.1246520326
 10
4.4580915503
 20
3.0640174037
 10
4.3778670963
 20
3.0133844814
 10
4.2910010439
 20
2.9729945547
 10
4.1979073492
 20
2.9430400999
 10
4.0990296462
 20
2.9236638636
 10
3.994839132
 20
2.9149581825
 10
3.885832322
 20
2.9169645431
 10
3.7725286833
 20
2.9296733841
 10
3.6554681592
 20
2.9530241422
 10
3.5352085966
 20
2.9869055403
 10
3.4123230869
 20
3.0311561182
 10
3.2873972356
 20
3.0855650017
 10
3.1610263712
 20
3.1498729076
 10
3.0338127086
 20
3.2237733796
 10
2.9063624786
 20
3.3069142483
 10
2.7792830397
 20
3.3988993095
 10
2.6531799834
 20
3.4992902125
 10
2.528654248
 20
3.6076085489
 10
2.4062992554
 20
3.7233381326
 10
2.286698083
 20
3.8459274594
 10
2.1704206846
 20
3.9747923353
 10
2.0580211752
 20
4.1093186606
 10
1.9500351895
 20
4.2488653559
 10
1.8469773299
 20
4.3927674177
  0
LWPOLYLINE
  5
26E
330
1F
100
AcDbEntity
  8
0
  6
Continuous
 62
     7
370
    18
100
AcDbPolyline
 90
       48
 70
   128
 43
0.0
 10
1.5251233015
 20
7.2721178622
 10
1.5515893292
 20
7.2896306321
 10
1.6351843933
 20
7.3351691912
 10
1.7252179142
 20
7.3703623522
 10
1.8212608411
 20
7.3950424035
 10
1.9228554859
 20
7.4090917336
 10
2.0295177036
 20
7.412443391
 10
2.1407392004
 20
7.4050814035
 10
2.255989955
 20
7.3870408543
 10
2.3747207452
 20
7.3584077149
 10
2.4963657648
 20
7.3193184352
 10
2.6203453197
 20
7.2699592934
 10
2.7460685909
 20
7.2105655083
 10
2.8729364498
 20
7.1414201184
 10
3.0003443133
 20
7.0628526329
 10
3.1276850249
 20
6.9752374616
 10
3.2543517481
 20
6.8789921309
 10
3.3797408582
 20
6.7745752934
 10
3.5032548191
 20
6.662484543
 10
3.6243050306
 20
6.5432540431
 10
3.7423146331
 20
6.4174519814
 10
3.8567212573
 20
6.285677862
 10
3.9669797034
 20
6.1485596485
 10
4.0725645397
 20
6.0067507718
 10
4.1729726065
 20
5.8609270156
 10
4.2677254135
 20
5.7117832967
 10
4.3563714205
 20
5.5600303527
 10
4.4384881889
 20
5.4063913554
 10
4.5136843948
 20
5.2515984648
 10
4.5816016942
 20
5.0963893394
 10
4.6419164302
 20
4.9415036214
 10
4.6943411755
 20
4.7876794118
 10
4.7386261024
 20
4.6356497529
 10
4.7745601731
 20
4.4861391354
 10
4.8019721453
 20
4.3398600454
 10
4.8207313885
 20
4.1975095693
 10
4.8307485064
 20
4.0597660721
 10
4.8319757628
 20
3.9272859643
 10
4.8244073093
 20
3.8007005738
 10
4.8080792131
 20
3.6806131377
 10
4.7830692849
 20
3.5675959273
 10
4.7494967084
 20
3.4621875212
 10
4.7075214723
 20
3.3648902383
 10
4.6573436077
 20
3.2761677445
 10
4.5992022349
 20
3.1964428429
 10
4.5333744241
 20
3.126095459
 10
4.4601738748
 20
3.0654608301
 10
4.4473825334
 20
3.0563907133
  0
LWPOLYLINE
  5
26F
330
1F
100
AcDbEntity
  8
0
  6
Continuous
 62
     7
370
    18
100
AcDbPolyline
 90
       87
 70
   128
 43
0.0
 10
1.9592308481
 20
4.4687791991
 10
1.8662731384
 20
4.6096051778
 10
1.7792798953
 20
4.7533827482
 10
1.6987152653
 20
4.8993447947
 10
1.6250090958
 20
5.0467125466
 10
1.5585546408
 20
5.1946997333
 10
1.4997064639
 20
5.3425167791
 10
1.4487785453
 20
5.489375016
 10
1.4060426076
 20
5.6344908919
 10
1.3717266655
 20
5.7770901508
 10
1.3460138095
 20
5.9164119638
 10
1.3290412287
 20
6.0517129889
 10
1.3208994791
 20
6.1822713366
 10
1.3216320006
 20
6.3073904215
 10
1.3312348849
 20
6.4264026792
 10
1.3496568963
 20
6.5386731279
 10
1.3767997455
 20
6.6436027561
 10
1.4125186136
 20
6.7406317188
 10
1.4566229251
 20
6.8292423246
 10
1.5088773643
 20
6.9089617975
 10
1.5690031312
 20
6.9793647996
 10
1.6366794288
 20
7.0400757005
 10
1.7115451748
 20
7.0907705812
 10
1.793200928
 20
7.1311789627
 10
1.8812110197
 20
7.1610852487
 10
1.9751058779
 20
7.1803298762
 10
2.074384533
 20
7.1888101668
 10
2.1785172903
 20
7.1864808746
 10
2.2869485566
 20
7.1733544273
 10
2.3990998041
 20
7.1495008601
 10
2.5143726575
 20
7.1150474422
 10
2.6321520861
 20
7.0701779974
 10
2.7518096857
 20
7.0151319238
 10
2.8727070313
 20
6.9502029158
 10
2.9941990833
 20
6.8757373978
 10
3.1156376289
 20
6.7921326756
 10
3.2363747409
 20
6.6998348166
 10
3.3557662348
 20
6.5993362697
 10
3.4731751051
 20
6.4911732383
 10
3.5879749247
 20
6.3759228188
 10
3.699553187
 20
6.2541999222
 10
3.8073145737
 20
6.1266539927
 10
3.910684131
 20
5.993965543
 10
4.0091103377
 20
5.8568425235
 10
4.1020680475
 20
5.7160165449
 10
4.1890612906
 20
5.5722389745
 10
4.2696259205
 20
5.426276928
 10
4.3433320901
 20
5.278909176
 10
4.409786545
 20
5.1309219893
 10
4.468634722
 20
4.9831049436
 10
4.5195626406
 20
4.8362467066
 10
4.5622985783
 20
4.6911308307
 10
4.5966145203
 20
4.5485315719
 10
4.6223273764
 20
4.4092097588
 10
4.6392999572
 20
4.2739087337
 10
4.6474417067
 20
4.1433503861
 10
4.6467091852
 20
4.0182313012
 10
4.637106301
 20
3.8992190434
 10
4.6186842896
 20
3.7869485947
 10
4.5915414404
 20
3.6820189666
 10
4.5558225723
 20
3.5849900038
 10
4.5117182608
 20
3.4963793981
 10
4.4594638216
 20
3.4166599252
 10
4.3993380547
 20
3.3462569231
 10
4.3316617571
 20
3.2855460222
 10
4.2567960111
 20
3.2348511414
 10
4.1751402579
 20
3.19444276
 10
4.0871301662
 20
3.164536474
 10
3.993235308
 20
3.1452918465
 10
3.8939566529
 20
3.1368115558
 10
3.7898238956
 20
3.139140848
 10
3.6813926293
 20
3.1522672954
 10
3.5692413817
 20
3.1761208626
 10
3.4539685284
 20
3.2105742805
 10
3.3361890998
 20
3.2554437252
 10
3.2165315002
 20
3.3104897989
 10
3.0956341546
 20
3.3754188069
 10
2.9741421026
 20
3.4498843249
 10
2.852703557
 20
3.533489047
 10
2.7319664449
 20
3.6257869061
 10
2.6125749511
 20
3.7262854529
 10
2.4951660808
 20
3.8344484844
 10
2.3803662611
 20
3.9496989038
 10
2.2687879988
 20
4.0714218005
 10
2.1610266122
 20
4.19896773
 10
2.0576570549
 20
4.3316561796
 10
1.9592308481
 20
4.4687791991
  0
ARC
  5
270
330
1F
100
AcDbEntity
  8
0
  6
Continuous
 62
     7
370
    18
100
AcDbCircle
 10
2.1042783256
 20
6.5016783195
 30
0.0
 40
0.6629933180987239
100
AcDbArc
 50
107.63455715
 51
140.2088375937
  0
ARC
  5
271
330
1F
100
AcDbEntity
  8
0
  6
Continuous
 62
     7
370
    18
100
AcDbCircle
 10
3.9288174346
 20
3.8696254403
 30
0.0
 40
0.6636577032073911
100
AcDbArc
 50
288.1795011639
 51
323.0790536883
  0
LWPOLYLINE
  5
272
330
1F
100
AcDbEntity
  8
0
  6
Continuous
 62
     7
370
    18
100
AcDbPolyline
 90
        3
 70
   128
 43
0.0
 10
1.8276951436
 20
7.0794837306
 10
1.8311192932
 20
7.0838305322
 10
1.8600811595
 20
7.1180096468
  0
LINE
  5
273
330
1F
100
AcDbEntity
  8
0
  6
Continuous
 62
     7
370
    18
100
AcDbLine
 10
4.4206087008
 20
3.4241260401
 30
0.0
 11
4.3702962527
 21
3.4064208765
 31
0.0
  0
LINE
  5
274
330
1F
100
AcDbEntity
  8
0
  6
Continuous
 62
     7
370
    18
100
AcDbLine
 10
2.5270862566
 20
5.5811761744
 30
0.0
 11
2.5361178368
 21
5.6127830117
 31
0.0
  0
LINE
  5
275
330
1F
100
AcDbEntity
  8
0
  6
Continuous
 62
     7
370
    18
100
AcDbLine
 10
3.2483111652
 20
4.5853543985
 30
0.0
 11
3.2317863715
 21
4.5862583678
 31
0.0
  0
SPLINE
  5
276
330
1F
100
AcDbEntity
  8
0
  6
Continuous
 62
     7
370
    18
100
AcDbSpline
210
0.0
220
0.0
230
1.0
 70
    11
 71
     3
 72
    66
 73
    62
 74
     0
 42
0.000000001
 43
0.00000001
 40
0.0
 40
0.0
 40
0.0
 40
0.0
 40
0.0197639821923237
 40
0.0331499461464105
 40
0.0535400926850748
 40
0.0667438745495582
 40
0.0800416922188304
 40
0.1071080842667858
 40
0.1201315768377184
 40
0.1332473478735905
 40
0.159934186659599
 40
0.172909286024816
 40
0.185973033878044
 40
0.1992189036012363
 40
0.2125572891368235
 40
0.2257578807462281
 40
0.2390490280914208
 40
0.2660795309790696
 40
0.2860197542796069
 40
0.2995329066478444
 40
0.31324731206385
 40
0.3201389149641493
 40
0.3332873316432844
 40
0.3465297529126269
 40
0.3734817107266009
 40
0.3864778089760343
 40
0.3995641976843589
 40
0.4261805095058394
 40
0.4392744641207652
 40
0.452458024263331
 40
0.4792658045899222
 40
0.492540381318511
 40
0.5059072873589111
 40
0.5330997993886929
 40
0.55298767030611
 40
0.5664650735550479
 40
0.5870057323542479
 40
0.6001381341453499
 40
0.6133637016745517
 40
0.6402769771464732
 40
0.6533148678808374
 40
0.6664433440432945
 40
0.6931459162195044
 40
0.7062718237329082
 40
0.7194878657933048
 40
0.7463636106483424
 40
0.7596433230755423
 40
0.7730154886117421
 40
0.8002193487837793
 40
0.8135001376004788
 40
0.8268755789326728
 40
0.854099706809444
 40
0.867200608665101
 40
0.8803947029213044
 40
0.9072449074033883
 40
0.92024023119449
 40
0.9333253568681203
 40
0.9599358777083571
 40
0.9698563526966274
 40
0.9898827183860093
 40
1.0
 40
1.0
 40
1.0
 40
1.0
 10
2.708068733036978
 20
5.844687403821917
 30
0.0
 10
2.703729334242402
 20
5.839765562948868
 30
0.0
 10
2.696450900425365
 20
5.831510204373096
 30
0.0
 10
2.684806623708166
 20
5.819394868296097
 30
0.0
 10
2.674826235094459
 20
5.809626050300396
 30
0.0
 10
2.66529710042561
 20
5.800919951956817
 30
0.0
 10
2.654896676304799
 20
5.791946308167401
 30
0.0
 10
2.645393620083923
 20
5.78455429126813
 30
0.0
 10
2.637062617728967
 20
5.778903977959733
 30
0.0
 10
2.629567644758466
 20
5.774429553068714
 30
0.0
 10
2.623327455320397
 20
5.771741272564324
 30
0.0
 10
2.618441880293954
 20
5.77091800501504
 30
0.0
 10
2.615455391611992
 20
5.771221796493672
 30
0.0
 10
2.613108588144917
 20
5.772472768279219
 30
0.0
 10
2.61141992157402
 20
5.774688031218353
 30
0.0
 10
2.610380010871133
 20
5.777864215348846
 30
0.0
 10
2.609827912479067
 20
5.783404886897346
 30
0.0
 10
2.610603956609694
 20
5.791819730063682
 30
0.0
 10
2.612867443430605
 20
5.802664536189352
 30
0.0
 10
2.615388709786803
 20
5.812373334754818
 30
0.0
 10
2.617632233921269
 20
5.820096107556251
 30
0.0
 10
2.620143912304846
 20
5.828217101387433
 30
0.0
 10
2.622893591867589
 20
5.836673930976565
 30
0.0
 10
2.627832660220033
 20
5.851068984881067
 30
0.0
 10
2.633525651679559
 20
5.866598624762678
 30
0.0
 10
2.639828625718515
 20
5.882829946869883
 30
0.0
 10
2.646473978103566
 20
5.899344488029174
 30
0.0
 10
2.653683173299092
 20
5.91632696567557
 30
0.0
 10
2.66133941561251
 20
5.933319769633705
 30
0.0
 10
2.669292521699533
 20
5.95025597524362
 30
0.0
 10
2.677658563575121
 20
5.966906934882938
 30
0.0
 10
2.686316408279486
 20
5.982817014437515
 30
0.0
 10
2.695190907921739
 20
5.998209961561182
 30
0.0
 10
2.705378351999788
 20
6.014230839510513
 30
0.0
 10
2.715649303206483
 20
6.028303913355319
 30
0.0
 10
2.724750759116721
 20
6.039410452049628
 30
0.0
 10
2.732629678099096
 20
6.047768827850759
 30
0.0
 10
2.740279274707998
 20
6.054602717223331
 30
0.0
 10
2.748750680873773
 20
6.061000730164431
 30
0.0
 10
2.756807004802301
 20
6.065242854067017
 30
0.0
 10
2.764231466918032
 20
6.067244333501502
 30
0.0
 10
2.771177466781475
 20
6.067788230572962
 30
0.0
 10
2.777370596609523
 20
6.066115599998477
 30
0.0
 10
2.782606617369402
 20
6.06229758954903
 30
0.0
 10
2.787174250823323
 20
6.057089703995044
 30
0.0
 10
2.790631578232632
 20
6.049815553108022
 30
0.0
 10
2.7928096589091
 20
6.040684742409114
 30
0.0
 10
2.794106705618805
 20
6.030345068879847
 30
0.0
 10
2.793978963528031
 20
6.018345824012138
 30
0.0
 10
2.792348244970157
 20
6.005034616117189
 30
0.0
 10
2.789718599303806
 20
5.990946384032243
 30
0.0
 10
2.785557780229172
 20
5.975862315390243
 30
0.0
 10
2.779946316152428
 20
5.960217067262371
 30
0.0
 10
2.773457160247664
 20
5.944378464224275
 30
0.0
 10
2.765627614753615
 20
5.928251197901294
 30
0.0
 10
2.756692443290406
 20
5.912248080436144
 30
0.0
 10
2.747136607222296
 20
5.896455424658275
 30
0.0
 10
2.737283861239339
 20
5.881886931662389
 30
0.0
 10
2.725497468046875
 20
5.86595434209098
 30
0.0
 10
2.716869643321536
 20
5.855028614255535
 30
0.0
 10
2.710280338437125
 20
5.847286075561485
 30
0.0
 10
2.708068733036978
 20
5.844687403821917
 30
0.0
  0
LWPOLYLINE
  5
277
330
1F
100
AcDbEntity
  8
0
  6
Continuous
 62
     7
370
    18
100
AcDbPolyline
 90
       46
 70
   128
 43
0.0
 10
2.7043227566
 20
4.9733136153
 10
2.6572313031
 20
5.0475045443
 10
2.6165033509
 20
5.1239397796
 10
2.5829316234
 20
5.2011315963
 10
2.5571695561
 20
5.2775775435
 10
2.5397185782
 20
5.3517896878
 10
2.5309183532
 20
5.4223235742
 10
2.5309401675
 20
5.4878063408
 10
2.5397835965
 20
5.5469634401
 10
2.5572765129
 20
5.5986434464
 10
2.583078437
 20
5.6418404672
 10
2.6166871636
 20
5.6757137216
 10
2.6574485372
 20
5.6996039052
 10
2.704569184
 20
5.7130460228
 10
2.7571319542
 20
5.7157784389
 10
2.8141137732
 20
5.7077479701
 10
2.8744055548
 20
5.6891109203
 10
2.9368337879
 20
5.6602300386
 10
3.0001833782
 20
5.6216674583
 10
3.0632212978
 20
5.5741737564
 10
3.1247205853
 20
5.5186733436
 10
3.1834842272
 20
5.4562464724
 10
3.2383684558
 20
5.3881082107
 10
3.2883050122
 20
5.3155847925
 10
3.3323219381
 20
5.2400878034
 10
3.369562494
 20
5.1630867066
 10
3.399301835
 20
5.0860802408
 10
3.4209611185
 20
5.0105672492
 10
3.4341187713
 20
4.9380175063
 10
3.4385186947
 20
4.8698431105
 10
3.434075249
 20
4.8073709986
 10
3.420874921
 20
4.7518171193
 10
3.39917464
 20
4.7042627658
 10
3.3693967772
 20
4.6656335293
 10
3.332120925
 20
4.6366812841
 10
3.2880726153
 20
4.6179695526
 10
3.2381091985
 20
4.6098625374
 10
3.1832031555
 20
4.6125180325
 10
3.1244231701
 20
4.6258843514
 10
3.0629133279
 20
4.6497013342
 10
2.9998708478
 20
4.6835054102
 10
2.9365227802
 20
4.7266386216
 10
2.8741021231
 20
4.7782614296
 10
2.8138238235
 20
4.8373690548
 10
2.75686113
 20
4.9028110346
 10
2.7043227566
 20
4.9733136153
  0
LWPOLYLINE
  5
278
330
1F
100
AcDbEntity
  8
0
  6
Continuous
 62
     7
370
    18
100
AcDbPolyline
 90
       35
 70
   128
 43
0.0
 10
2.8178986439
 20
5.0502208308
 10
2.7816521907
 20
5.1088906509
 10
2.7523022587
 20
5.1693966591
 10
2.7308483247
 20
5.2296783958
 10
2.7180209768
 20
5.2876830389
 10
2.7142570348
 20
5.3414353097
 10
2.7196846754
 20
5.3891047392
 10
2.7341190666
 20
5.429068002
 10
2.7570686627
 20
5.4599641973
 10
2.7877519426
 20
5.4807411921
 10
2.8251240241
 20
5.4906914508
 10
2.8679122457
 20
5.4894761293
 10
2.9146595059
 20
5.4771366139
 10
2.9637738828
 20
5.454093112
 10
3.0135828452
 20
5.4211303424
 10
3.0623902086
 20
5.3793708126
 10
3.1085338969
 20
5.3302365935
 10
3.150442542
 20
5.2754008919
 10
3.1866889952
 20
5.2167310718
 10
3.2160389272
 20
5.1562250636
 10
3.2374928612
 20
5.0959433268
 10
3.2503202091
 20
5.0379386838
 10
3.2540841511
 20
4.984186413
 10
3.2486565105
 20
4.9365169835
 10
3.2342221193
 20
4.8965537206
 10
3.2112725232
 20
4.8656575254
 10
3.1805892433
 20
4.8448805305
 10
3.1432171618
 20
4.8349302718
 10
3.1004289402
 20
4.8361455933
 10
3.05368168
 20
4.8484851088
 10
3.0045673031
 20
4.8715286107
 10
2.9547583407
 20
4.9044913803
 10
2.9059509772
 20
4.94625091
 10
2.859807289
 20
4.9953851292
 10
2.8178986439
 20
5.0502208308
  0
ARC
  5
279
330
1F
100
AcDbEntity
  8
0
  6
Continuous
 62
     7
370
    18
100
AcDbCircle
 10
3.1016873365
 20
5.6891921032
 30
0.0
 40
0.4257788576846437
100
AcDbArc
 50
138.2354377479
 51
159.2314530311
  0
ARC
  5
27A
330
1F
100
AcDbEntity
  8
0
  6
Continuous
 62
     7
370
    18
100
AcDbCircle
 10
3.0167356442
 20
5.7377889495
 30
0.0
 40
0.3145749297705906
100
AcDbArc
 50
146.9344933182
 51
152.032974057
  0
LWPOLYLINE
  5
27B
330
1F
100
AcDbEntity
  8
0
  6
Continuous
 62
     7
370
    18
100
AcDbPolyline
 90
       44
 70
   128
 43
0.0
 10
7.3156997589
 20
5.4257845144
 10
7.3725842929
 20
5.4710969464
 10
7.4352570663
 20
5.5350914179
 10
7.4903564922
 20
5.6084324472
 10
7.537586143
 20
5.6907254693
 10
7.5766919295
 20
5.7815277588
 10
7.6074634677
 20
5.8803508112
 10
7.6297352108
 20
5.9866629717
 10
7.6433873398
 20
6.0998922949
 10
7.6483464081
 20
6.2194296222
 10
7.6445857364
 20
6.3446318585
 10
7.6321255568
 20
6.4748254324
 10
7.6110329033
 20
6.6093099197
 10
7.5814212517
 20
6.7473618117
 10
7.5434499086
 20
6.8882384076
 10
7.4973231549
 20
7.03118181
 10
7.4432891463
 20
7.1754230022
 10
7.3816385788
 20
7.3201859858
 10
7.3127031242
 20
7.4646919551
 10
7.236853646
 20
7.6081634872
 10
7.1544982044
 20
7.7498287243
 10
7.0660798608
 20
7.8889255262
 10
6.9720742942
 20
8.0247055704
 10
6.872987242
 20
8.1564383784
 10
6.7693517794
 20
8.2834152452
 10
6.6617254514
 20
8.404953052
 10
6.5506872736
 20
8.5203979415
 10
6.4368346164
 20
8.6291288355
 10
6.3207799922
 20
8.7305607763
 10
6.2031477594
 20
8.8241480735
 10
6.0845707639
 20
8.9093872397
 10
5.9656869341
 20
8.9858196996
 10
5.8471358493
 20
9.0530342567
 10
5.7295552986
 20
9.1106693056
 10
5.6135778498
 20
9.1584147774
 10
5.4998274462
 20
9.1960138077
 10
5.3889160498
 20
9.2232641187
 10
5.2814403493
 20
9.2400191074
 10
5.1779785498
 20
9.2461886342
 10
5.0790872619
 20
9.2417395079
 10
4.9852985077
 20
9.226695664
 10
4.8971168582
 20
9.2011380367
 10
4.8150167191
 20
9.1652041223
 10
4.7503386647
 20
9.1266411302
  0
LWPOLYLINE
  5
27C
330
1F
100
AcDbEntity
  8
0
  6
Continuous
 62
     7
370
    18
100
AcDbPolyline
 90
       21
 70
   128
 43
0.0
 10
2.0124658495
 20
4.5053478872
 10
1.9203525217
 20
4.6449646337
 10
1.834226817
 20
4.7875326593
 10
1.7545591242
 20
4.9322733067
 10
1.6817845606
 20
5.0783960529
 10
1.6163005957
 20
5.225102826
 10
1.5584648802
 20
5.3715923645
 10
1.5085932926
 20
5.5170645933
 10
1.4669582144
 20
5.6607249937
 10
1.4337870418
 20
5.8017889422
 10
1.4092609443
 20
5.9394859965
 10
1.393513875
 20
6.0730641031
 10
1.3866318388
 20
6.2017937046
 10
1.3886524231
 20
6.3249717247
 10
1.3995645921
 20
6.4419254076
 10
1.4193087474
 20
6.552015993
 10
1.4477770532
 20
6.6546422042
 10
1.4848140256
 20
6.7492435324
 10
1.5302173813
 20
6.835303298
 10
1.5837391431
 20
6.9123514725
 10
1.5948460293
 20
6.9259882007
  0
LWPOLYLINE
  5
27D
330
1F
100
AcDbEntity
  8
0
  6
Continuous
 62
     7
370
    18
100
AcDbPolyline
 90
       21
 70
   128
 43
0.0
 10
4.1358753362
 20
3.2390950506
 10
4.1170758025
 20
3.2331583641
 10
4.0252285151
 20
3.2117707784
 10
3.927872748
 20
3.2011620796
 10
3.8255402249
 20
3.2013902087
 10
3.7187898503
 20
3.2124539198
 10
3.6082046579
 20
3.2342927867
 10
3.4943886255
 20
3.266787533
 10
3.377963377
 20
3.3097606838
 10
3.2595647867
 20
3.3629775346
 10
3.1398395065
 20
3.4261474334
 10
3.0194414345
 20
3.4989253682
 10
2.8990281431
 20
3.580913851
 10
2.779257288
 20
3.6716650893
 10
2.6607830162
 20
3.7706834312
 10
2.5442523929
 20
3.8774280729
 10
2.4303018681
 20
3.9913160122
 10
2.3195537999
 20
4.1117252326
 10
2.212613056
 20
4.2379981007
 10
2.1100637095
 20
4.369444958
 10
2.0124658495
 20
4.5053478872
  0
LWPOLYLINE
  5
27E
330
1F
100
AcDbEntity
  8
0
  6
Continuous
 62
     7
370
    18
100
AcDbPolyline
 90
       20
 70
   128
 43
0.0
 10
2.2598459996
 20
4.6768269469
 10
2.1677326718
 20
4.8164436934
 10
2.0816069671
 20
4.959011719
 10
2.0019392743
 20
5.1037523664
 10
1.9291647108
 20
5.2498751126
 10
1.8636807459
 20
5.3965818857
 10
1.8058450303
 20
5.5430714242
 10
1.7559734428
 20
5.688543653
 10
1.7143383645
 20
5.8322040534
 10
1.6811671919
 20
5.9732680019
 10
1.6566410944
 20
6.1109650562
 10
1.6408940251
 20
6.2445431628
 10
1.6340119889
 20
6.3732727643
 10
1.6360325732
 20
6.4964507844
 10
1.6469447422
 20
6.6134044673
 10
1.6666888975
 20
6.7234950527
 10
1.6951572033
 20
6.8261212639
 10
1.7321941757
 20
6.9207225921
 10
1.7775975314
 20
7.0067823578
 10
1.8276951436
 20
7.0794837306
  0
LWPOLYLINE
  5
27F
330
1F
100
AcDbEntity
  8
0
  6
Continuous
 62
     7
370
    18
100
AcDbPolyline
 90
       21
 70
   128
 43
0.0
 10
4.3702962527
 20
3.4064208765
 10
4.3644559526
 20
3.4046374238
 10
4.2726086652
 20
3.3832498381
 10
4.1752528982
 20
3.3726411393
 10
4.072920375
 20
3.3728692684
 10
3.9661700004
 20
3.3839329795
 10
3.855584808
 20
3.4057718464
 10
3.7417687757
 20
3.4382665927
 10
3.6253435271
 20
3.4812397435
 10
3.5069449368
 20
3.5344565943
 10
3.3872196566
 20
3.5976264931
 10
3.2668215846
 20
3.6704044279
 10
3.1464082932
 20
3.7523929107
 10
3.0266374382
 20
3.843144149
 10
2.9081631663
 20
3.9421624909
 10
2.791632543
 20
4.0489071326
 10
2.6776820182
 20
4.1627950719
 10
2.56693395
 20
4.2832042923
 10
2.4599932061
 20
4.4094771604
 10
2.3574438596
 20
4.5409240177
 10
2.2598459996
 20
4.6768269469
  0
LWPOLYLINE
  5
280
330
1F
100
AcDbEntity
  8
0
  6
Continuous
 62
     7
370
    18
100
AcDbPolyline
 90
       22
 70
   128
 43
0.0
 10
2.313081001
 20
4.713395635
 10
2.2228711192
 20
4.8501273164
 10
2.1385251314
 20
4.989749291
 10
2.0605037059
 20
5.1314989922
 10
1.9892329688
 20
5.2746022321
 10
1.9251021761
 20
5.4182774304
 10
1.868461588
 20
5.5617398832
 10
1.8196205558
 20
5.7042060482
 10
1.7788458322
 20
5.8448978246
 10
1.7463601145
 20
5.9830468027
 10
1.7223408287
 20
6.1178984607
 10
1.7069191595
 20
6.2487162857
 10
1.700179335
 20
6.374785796
 10
1.7021581656
 20
6.4954184436
 10
1.7128448436
 20
6.609955375
 10
1.7321810022
 20
6.717771029
 10
1.7600610339
 20
6.818276554
 10
1.7963326677
 20
6.9109230237
 10
1.8407978004
 20
6.9952044351
 10
1.8932135791
 20
7.0706604724
 10
1.9532937267
 20
7.136879021
 10
1.9665696877
 20
7.1493173195
  0
LWPOLYLINE
  5
281
330
1F
100
AcDbEntity
  8
0
  6
Continuous
 62
     7
370
    18
100
AcDbPolyline
 90
       22
 70
   128
 43
0.0
 10
4.4916629431
 20
3.5151178886
 10
4.458264337
 20
3.4988822424
 10
4.3742009217
 20
3.4674948612
 10
4.2842515828
 20
3.4465492324
 10
4.1889075926
 20
3.4361597536
 10
4.0886896868
 20
3.4363831686
 10
3.9841452208
 20
3.4472182572
 10
3.8758451804
 20
3.4686058419
 10
3.7643810627
 20
3.5004291111
 10
3.6503616461
 20
3.5425142571
 10
3.5344096651
 20
3.5946314255
 10
3.4171584093
 20
3.6564959703
 10
3.2992482643
 20
3.7277700089
 10
3.1813232145
 20
3.8080642673
 10
3.0640273256
 20
3.8969402059
 10
2.9480012271
 20
3.9939124153
 10
2.8338786132
 20
4.0984512668
 10
2.7222827822
 20
4.2099858056
 10
2.6138232317
 20
4.3279068685
 10
2.5090923302
 20
4.4515704118
 10
2.4086620816
 20
4.580301028
 10
2.313081001
 20
4.713395635
  0
LWPOLYLINE
  5
282
330
1F
100
AcDbEntity
  8
0
  6
Continuous
 62
     7
370
    18
100
AcDbPolyline
 90
       40
 70
   128
 43
0.0
 10
2.6168779566
 20
5.8477224247
 10
2.6212096339
 20
5.8993273765
 10
2.6349662987
 20
5.9694503081
 10
2.6573473182
 20
6.0318800516
 10
2.6880609216
 20
6.0858027397
 10
2.7267067099
 20
6.1305154079
 10
2.7727808764
 20
6.1654351579
 10
2.8256827738
 20
6.1901067576
 10
2.8847227449
 20
6.2042085749
 10
2.9491311134
 20
6.2075567711
 10
3.0180682178
 20
6.2001076972
 10
3.0906353575
 20
6.1819584633
 10
3.1658865087
 20
6.1533456725
 10
3.2428406578
 20
6.1146423362
 10
3.3204945896
 20
6.0663530117
 10
3.3978359665
 20
6.0091072241
 10
3.4738565252
 20
5.9436512598
 10
3.5475652216
 20
5.8708384374
 10
3.61800115
 20
5.7916179834
 10
3.6842460704
 20
5.7070226576
 10
3.745436379
 20
5.6181552894
 10
3.8007743666
 20
5.5261744008
 10
3.8495386177
 20
5.4322791035
 10
3.8910934159
 20
5.3376934661
 10
3.9248970308
 20
5.2436505572
 10
3.9505087805
 20
5.1513763699
 10
3.9675947768
 20
5.0620738393
 10
3.9759322776
 20
4.9769071605
 10
3.9754125907
 20
4.8969866113
 10
3.9660424911
 20
4.8233540784
 10
3.9479441324
 20
4.7569694745
 10
3.9213534544
 20
4.6986982243
 10
3.8866171072
 20
4.6492999828
 10
3.8441879322
 20
4.6094187315
 10
3.7946190586
 20
4.5795743836
 10
3.7385566924
 20
4.5601560057
 10
3.6767316925
 20
4.5514167462
 10
3.6099500421
 20
4.5534705346
 10
3.5390823422
 20
4.5662905967
 10
3.4966502272
 20
4.5785400724
  0
LWPOLYLINE
  5
283
330
1F
100
AcDbEntity
  8
0
  6
Continuous
 62
     7
370
    18
100
AcDbPolyline
 90
       31
 70
   128
 43
0.0
 10
2.5361178368
 20
5.6127830117
 10
2.5417533285
 20
5.6278080741
 10
2.5668670272
 20
5.6746828475
 10
2.6000568618
 20
5.7122321431
 10
2.6407045687
 20
5.7397564885
 10
2.6880529579
 20
5.7567431573
 10
2.7412200185
 20
5.7628757199
 10
2.7992153489
 20
5.7580399383
 10
2.8609586056
 20
5.742325894
 10
2.9252996287
 20
5.71602631
 10
2.9910398667
 20
5.6796310975
 10
3.0569547033
 20
5.6338182308
 10
3.1218162697
 20
5.5794411166
 10
3.1844163179
 20
5.5175126979
 10
3.2435887272
 20
5.4491865838
 10
3.2982312277
 20
5.3757355607
 10
3.3473259329
 20
5.298527882
 10
3.3899583015
 20
5.2190017808
 10
3.425334173
 20
5.1386386778
 10
3.4527945618
 20
5.0589355857
 10
3.471827933
 20
4.9813772221
 10
3.4820797308
 20
4.9074083528
 10
3.4833589836
 20
4.8384068777
 10
3.4756418614
 20
4.7756581638
 10
3.4590721195
 20
4.7203311008
 10
3.4339584208
 20
4.6734563274
 10
3.4007685862
 20
4.6359070318
 10
3.3601208793
 20
4.6083826864
 10
3.3127724901
 20
4.5913960177
 10
3.2596054295
 20
4.585263455
 10
3.2483111652
 20
4.5853543985
  0
LWPOLYLINE
  5
284
330
1F
100
AcDbEntity
  8
0
  6
Continuous
 62
     7
370
    18
100
AcDbPolyline
 90
       35
 70
   128
 43
0.0
 10
2.6550697276
 20
5.9588261759
 10
2.6738708523
 20
6.0038309871
 10
2.705493882
 20
6.0545372548
 10
2.7448898692
 20
6.0959601779
 10
2.7915260508
 20
6.1275395822
 10
2.8447717523
 20
6.1488484105
 10
2.903906917
 20
6.1595984975
 10
2.9681318434
 20
6.1596444667
 10
3.0365779993
 20
6.1489856964
 10
3.1083197679
 20
6.1277663282
 10
3.182386965
 20
6.0962733176
 10
3.2577779588
 20
6.0549325537
 10
3.3334732153
 20
6.0043030992
 10
3.4084490861
 20
5.9450696308
 10
3.4816916511
 20
5.8780331795
 10
3.5522104304
 20
5.8041002983
 10
3.6190517784
 20
5.7242708025
 10
3.6813117805
 20
5.6396242492
 10
3.7381484769
 20
5.5513053378
 10
3.788793249
 20
5.46050843
 10
3.832561213
 20
5.3684613983
 10
3.8688604823
 20
5.2764090208
 10
3.8972001716
 20
5.1855961481
 10
3.9171970351
 20
5.0972508685
 10
3.9285806496
 20
5.0125679003
 10
3.9311970713
 20
4.9326924353
 10
3.9250109175
 20
4.8587046523
 10
3.9101058453
 20
4.7916051091
 10
3.8866834203
 20
4.7323012119
 10
3.8550603905
 20
4.6815949441
 10
3.8156644033
 20
4.6401720211
 10
3.7690282218
 20
4.6085926167
 10
3.7157825202
 20
4.5872837884
 10
3.6566473555
 20
4.5765337014
 10
3.6140907239
 20
4.5753175514
  0
ENDSEC
  0
SECTION
  2
OBJECTS
  0
DICTIONARY
  5
C
330
0
100
AcDbDictionary
281
     1
  3
ACAD_GROUP
350
D
  3
ACAD_LAYOUT
350
1A
  3
ACAD_MLINESTYLE
350
17
  3
ACAD_PLOTSETTINGS
350
19
  3
ACAD_PLOTSTYLENAME
350
E
  3
ACAD_SCALELIST
350
47
  0
DICTIONARY
  5
D
102
{ACAD_REACTORS
330
C
102
}
330
C
100
AcDbDictionary
281
     1
  0
DICTIONARY
  5
1A
102
{ACAD_REACTORS
330
C
102
}
330
C
100
AcDbDictionary
281
     1
  3
Layout1
350
1E
  3
Layout2
350
26
  3
Model
350
22
  0
DICTIONARY
  5
17
102
{ACAD_REACTORS
330
C
102
}
330
C
100
AcDbDictionary
281
     1
  3
Standard
350
18
  0
DICTIONARY
  5
19
102
{ACAD_REACTORS
330
C
102
}
330
C
100
AcDbDictionary
281
     1
  0
ACDBDICTIONARYWDFLT
  5
E
102
{ACAD_REACTORS
330
C
102
}
330
C
100
AcDbDictionary
281
     1
  3
Normal
350
F
100
AcDbDictionaryWithDefault
340
F
  0
DICTIONARY
  5
47
102
{ACAD_REACTORS
330
C
102
}
330
C
100
AcDbDictionary
281
     1
  3
A0
350
48
  3
A1
350
49
  3
A2
350
4A
  3
A3
350
4B
  3
A4
350
4C
  3
A5
350
4D
  3
A6
350
4E
  3
A7
350
4F
  3
A8
350
50
  3
A9
350
51
  3
B0
350
52
  3
B1
350
53
  3
B2
350
54
  3
B3
350
55
  3
B4
350
56
  3
B5
350
57
  3
B6
350
58
  3
B7
350
59
  3
B8
350
5A
  3
B9
350
5B
  3
C0
350
5C
  3
C1
350
5D
  3
C2
350
5E
  3
C3
350
5F
  3
C4
350
60
  3
C5
350
61
  3
C6
350
62
  3
C7
350
63
  3
C8
350
64
  3
C9
350
65
  3
D0
350
66
  3
D1
350
67
  3
D2
350
68
  0
LAYOUT
  5
1E
102
{ACAD_REACTORS
330
1A
102
}
330
1A
100
AcDbPlotSettings
  1

  2
none_device
  4

  6

 40
0.0
 41
0.0
 42
0.0
 43
0.0
 44
0.0
 45
0.0
 46
0.0
 47
0.0
 48
0.0
 49
0.0
140
0.0
141
0.0
142
1.0
143
1.0
 70
   688
 72
     0
 73
     0
 74
     5
  7

 75
    16
147
1.0
148
0.0
149
0.0
100
AcDbLayout
  1
Layout1
 70
     1
 71
     1
 10
0.0
 20
0.0
 11
12.0
 21
9.0
 12
0.0
 22
0.0
 32
0.0
 14
1.0000000000E+20
 24
1.0000000000E+20
 34
1.0000000000E+20
 15
-1.0000000000E+20
 25
-1.0000000000E+20
 35
-1.0000000000E+20
146
0.0
 13
0.0
 23
0.0
 33
0.0
 16
1.0
 26
0.0
 36
0.0
 17
0.0
 27
1.0
 37
0.0
 76
     0
330
1B
  0
LAYOUT
  5
26
102
{ACAD_REACTORS
330
1A
102
}
330
1A
100
AcDbPlotSettings
  1

  2
none_device
  4

  6

 40
0.0
 41
0.0
 42
0.0
 43
0.0
 44
0.0
 45
0.0
 46
0.0
 47
0.0
 48
0.0
 49
0.0
140
0.0
141
0.0
142
1.0
143
1.0
 70
   688
 72
     0
 73
     0
 74
     5
  7

 75
    16
147
1.0
148
0.0
149
0.0
100
AcDbLayout
  1
Layout2
 70
     1
 71
     2
 10
0.0
 20
0.0
 11
0.0
 21
0.0
 12
0.0
 22
0.0
 32
0.0
 14
0.0
 24
0.0
 34
0.0
 15
0.0
 25
0.0
 35
0.0
146
0.0
 13
0.0
 23
0.0
 33
0.0
 16
1.0
 26
0.0
 36
0.0
 17
0.0
 27
1.0
 37
0.0
 76
     0
330
23
  0
LAYOUT
  5
22
102
{ACAD_REACTORS
330
1A
102
}
330
1A
100
AcDbPlotSettings
  1

  2
none_device
  4
Letter_(8.50_x_11.00_Inches)
  6

 40
6.35
 41
6.35
 42
6.35000508
 43
6.35000508
 44
215.9
 45
279.4
 46
0.0
 47
0.0
 48
0.0
 49
0.0
140
0.0
141
0.0
142
1.0
143
1.0
 70
  1712
 72
     0
 73
     0
 74
     0
  7

 75
     0
147
1.0
148
0.0
149
0.0
100
AcDbLayout
  1
Model
 70
     1
 71
     0
 10
0.0
 20
0.0
 11
17.0
 21
11.0
 12
0.0
 22
0.0
 32
0.0
 14
0.0
 24
0.0
 34
0.0
 15
17.0
 25
11.0
 35
0.0
146
0.0
 13
0.0
 23
0.0
 33
0.0
 16
1.0
 26
0.0
 36
0.0
 17
0.0
 27
1.0
 37
0.0
 76
     0
330
1F
331
29
  0
MLINESTYLE
  5
18
102
{ACAD_REACTORS
330
17
102
}
330
17
100
AcDbMlineStyle
  2
Standard
 70
     0
  3

 62
   256
 51
90.0
 52
90.0
 71
     2
 49
0.5
 62
   256
  6
BYLAYER
 49
-0.5
 62
   256
  6
BYLAYER
  0
ACDBPLACEHOLDER
  5
F
102
{ACAD_REACTORS
330
E
102
}
330
E
  0
SCALE
  5
48
102
{ACAD_REACTORS
330
47
102
}
330
47
100
AcDbScale
 70
     0
300
1:1
140
1.0
141
1.0
290
     1
  0
SCALE
  5
49
102
{ACAD_REACTORS
330
47
102
}
330
47
100
AcDbScale
 70
     0
300
1:2
140
1.0
141
2.0
290
     0
  0
SCALE
  5
4A
102
{ACAD_REACTORS
330
47
102
}
330
47
100
AcDbScale
 70
     0
300
1:4
140
1.0
141
4.0
290
     0
  0
SCALE
  5
4B
102
{ACAD_REACTORS
330
47
102
}
330
47
100
AcDbScale
 70
     0
300
1:5
140
1.0
141
5.0
290
     0
  0
SCALE
  5
4C
102
{ACAD_REACTORS
330
47
102
}
330
47
100
AcDbScale
 70
     0
300
1:8
140
1.0
141
8.0
290
     0
  0
SCALE
  5
4D
102
{ACAD_REACTORS
330
47
102
}
330
47
100
AcDbScale
 70
     0
300
1:10
140
1.0
141
10.0
290
     0
  0
SCALE
  5
4E
102
{ACAD_REACTORS
330
47
102
}
330
47
100
AcDbScale
 70
     0
300
1:16
140
1.0
141
16.0
290
     0
  0
SCALE
  5
4F
102
{ACAD_REACTORS
330
47
102
}
330
47
100
AcDbScale
 70
     0
300
1:20
140
1.0
141
20.0
290
     0
  0
SCALE
  5
50
102
{ACAD_REACTORS
330
47
102
}
330
47
100
AcDbScale
 70
     0
300
1:30
140
1.0
141
30.0
290
     0
  0
SCALE
  5
51
102
{ACAD_REACTORS
330
47
102
}
330
47
100
AcDbScale
 70
     0
300
1:40
140
1.0
141
40.0
290
     0
  0
SCALE
  5
52
102
{ACAD_REACTORS
330
47
102
}
330
47
100
AcDbScale
 70
     0
300
1:50
140
1.0
141
50.0
290
     0
  0
SCALE
  5
53
102
{ACAD_REACTORS
330
47
102
}
330
47
100
AcDbScale
 70
     0
300
1:100
140
1.0
141
100.0
290
     0
  0
SCALE
  5
54
102
{ACAD_REACTORS
330
47
102
}
330
47
100
AcDbScale
 70
     0
300
2:1
140
2.0
141
1.0
290
     0
  0
SCALE
  5
55
102
{ACAD_REACTORS
330
47
102
}
330
47
100
AcDbScale
 70
     0
300
4:1
140
4.0
141
1.0
290
     0
  0
SCALE
  5
56
102
{ACAD_REACTORS
330
47
102
}
330
47
100
AcDbScale
 70
     0
300
8:1
140
8.0
141
1.0
290
     0
  0
SCALE
  5
57
102
{ACAD_REACTORS
330
47
102
}
330
47
100
AcDbScale
 70
     0
300
10:1
140
10.0
141
1.0
290
     0
  0
SCALE
  5
58
102
{ACAD_REACTORS
330
47
102
}
330
47
100
AcDbScale
 70
     0
300
100:1
140
100.0
141
1.0
290
     0
  0
SCALE
  5
59
102
{ACAD_REACTORS
330
47
102
}
330
47
100
AcDbScale
 70
     0
300
1/128" = 1'-0"
140
0.0078125
141
12.0
290
     0
  0
SCALE
  5
5A
102
{ACAD_REACTORS
330
47
102
}
330
47
100
AcDbScale
 70
     0
300
1/64" = 1'-0"
140
0.015625
141
12.0
290
     0
  0
SCALE
  5
5B
102
{ACAD_REACTORS
330
47
102
}
330
47
100
AcDbScale
 70
     0
300
1/32" = 1'-0"
140
0.03125
141
12.0
290
     0
  0
SCALE
  5
5C
102
{ACAD_REACTORS
330
47
102
}
330
47
100
AcDbScale
 70
     0
300
1/16" = 1'-0"
140
0.0625
141
12.0
290
     0
  0
SCALE
  5
5D
102
{ACAD_REACTORS
330
47
102
}
330
47
100
AcDbScale
 70
     0
300
3/32" = 1'-0"
140
0.09375
141
12.0
290
     0
  0
SCALE
  5
5E
102
{ACAD_REACTORS
330
47
102
}
330
47
100
AcDbScale
 70
     0
300
1/8" = 1'-0"
140
0.125
141
12.0
290
     0
  0
SCALE
  5
5F
102
{ACAD_REACTORS
330
47
102
}
330
47
100
AcDbScale
 70
     0
300
3/16" = 1'-0"
140
0.1875
141
12.0
290
     0
  0
SCALE
  5
60
102
{ACAD_REACTORS
330
47
102
}
330
47
100
AcDbScale
 70
     0
300
1/4" = 1'-0"
140
0.25
141
12.0
290
     0
  0
SCALE
  5
61
102
{ACAD_REACTORS
330
47
102
}
330
47
100
AcDbScale
 70
     0
300
3/8" = 1'-0"
140
0.375
141
12.0
290
     0
  0
SCALE
  5
62
102
{ACAD_REACTORS
330
47
102
}
330
47
100
AcDbScale
 70
     0
300
1/2" = 1'-0"
140
0.5
141
12.0
290
     0
  0
SCALE
  5
63
102
{ACAD_REACTORS
330
47
102
}
330
47
100
AcDbScale
 70
     0
300
3/4" = 1'-0"
140
0.75
141
12.0
290
     0
  0
SCALE
  5
64
102
{ACAD_REACTORS
330
47
102
}
330
47
100
AcDbScale
 70
     0
300
1" = 1'-0"
140
1.0
141
12.0
290
     0
  0
SCALE
  5
65
102
{ACAD_REACTORS
330
47
102
}
330
47
100
AcDbScale
 70
     0
300
1-1/2" = 1'-0"
140
1.5
141
12.0
290
     0
  0
SCALE
  5
66
102
{ACAD_REACTORS
330
47
102
}
330
47
100
AcDbScale
 70
     0
300
3" = 1'-0"
140
3.0
141
12.0
290
     0
  0
SCALE
  5
67
102
{ACAD_REACTORS
330
47
102
}
330
47
100
AcDbScale
 70
     0
300
6" = 1'-0"
140
6.0
141
12.0
290
     0
  0
SCALE
  5
68
102
{ACAD_REACTORS
330
47
102
}
330
47
100
AcDbScale
 70
     0
300
1'-0" = 1'-0"
140
12.0
141
12.0
290
     0
  0
ENDSEC
  0
EOF
